Good Charlotte - Emotionless Chords & Tabs

 

Emotionless Chords & Tabs

Good Charlotte Chords & Tabs

Version: 1 Type: Bass Tab 0 ratings
1 star 2 stars 3 stars 4 stars 5 stars
comments

Emotionless Bass Tab

   
Emotionless Bass tab by Good Charlotte

Song:  "Emotionless"
Artist:  Good Charlotte
Album:  Young and the hopeless.
Tabbed By:  Danny Brown
Email:  danny_brown1988@hotmail.com
Tuning:  Standard (E,A,D,G)

This not perfect but its enough to get you started im sure you can work out the rythem 
strum pattern in the chorus, corrections please email them to me, also played with 
not a pic.

Intro No Bass...... (GET A GUITARIST)

Verse
G----------------------------|
D----------------------------|
A-7-----5-----6-----7-----3--|
E----------------------------|

G----------------------|
D----------------------|
A-7-----5-----6----3---|
E----------------------|

G-----------------------------|
D-----------------------------|
A-7-----5-----6-----7-----3---|
E-----------------------------|

G-------------------------|
D-------------------------|
A-5-----3-----------------|
E--------------5-----3----|
[ Tab from: http://www.guitartabs.cc/tabs/g/good_charlotte/emotionless_btab.html ]
G-------------------------|
D-------------------------|
A-7----------------3------|
E-------------------------|

Chorus
G------------------------------|
D------------------------------|
A------------------33---33----|
E--3--3---33-------------------| X4

Bridge
G--------------------------------------------|
D--------------------------------------------|
A--------------------------------------------|
E55~~~~~--99~~~~~--33~~~~~--44~~~~~-----|

G--------------------------------------------|
D--------------------------------------------|
A--------------------------------------------|
E55~~~~~--99~~~~~--33~~~~~--44~~~~~-----|

G--------------------------------------------|
D--------------------------------------------|
A--------------------------------------------|
E55~~~~~--77~~~~~--99~~~~~---------------|

Play order
Intro (No Bass)
Verse x1
Chorus x4
Verse x1
Chorus x4
Bridge x1
Chorus x4
Outro (No Bass)

That's it Please rate.
Comments