Good Charlotte - East Coast Anthem Chords & Tabs

 

East Coast Anthem Chords & Tabs

Good Charlotte Chords & Tabs

Version: 1 Type: Tab 0 ratings
1 star 2 stars 3 stars 4 stars 5 stars
comments

East Coast Anthem Tab

   
u can figure out the strumming pattern yourself
there's a riff in the verse but i can't figure it out

intro/verse
   Am C
e--0--0--
b--1--1--
g--2--0--
d--2--2--
a--0--3--
e--------

chorus
   F  C  G
e--1--0--3--
b--1--1--0--
g--2--0--0--
d--3--2--0--
a--0--3--2--
e--------3--
[ Tab from: http://www.guitartabs.cc/tabs/g/good_charlotte/east_coast_anthem_tab.html ]
solo
e---------------------------------------------------------------------
b---------------------------------------------------------------------
g-----------5-7b-5-7b-5-----5-----5-----5-7b-5------------------------
d-----5-5h7-------------5h7---5h7---5h7------------5-----5-----5-7b-5-
a-5h7------------------------------------------5h7---5h7---5h7--------
e---------------------------------------------------------------------

e----------------------
b----------------------
g-----------5-7b--7b-5-
d-----5-5h7------------
a-5h7------------------
e----------------------

pretty easy, huh? u can play power chords int the chorus if u want, it sounds
good either way... if u have any questions, email me at blinkskater2@juno.com
Comments