Good Charlotte - Dont Wanna Stop Chords & Tabs

 

Dont Wanna Stop Chords & Tabs

Good Charlotte Chords & Tabs

Version: 1 Type: Bass Tab 0 ratings
1 star 2 stars 3 stars 4 stars 5 stars
comments

Dont Wanna Stop Bass Tab

Good Charlotte - Don't Wanna Stop
Submitted By: The bass playing camel
EMail: camel_spit30@hotmail.com


Intro (after drum roll)
G----------------------------------------------------------------
D-------------------------------------------0--0--0--0-----------(x2)
A----------------2--2--2--2----3--3--3--3------------------------
E--3--3--3--3----------------------------------------------------

Verse 1
G----------------------------------------------------------------
D-------------------------------------------0--0--0--0-----------(x4)
A----------------2--2--2--2----3--3--3--3------------------------
E--3--3--3--3----------------------------------------------------

Chorus part 1  (And I know...)
G----------------------------------------------------------------------
D-------------------0--0--0--0-----------------------------------------
A-----3--3--3--3-------------------------------2--2--2--2--------------
E--------------------------------3--3--3--3----------------------------

G----------------------------------------------------------------------
D---------------0--0--0--0-----------------------------------------0---
A--3--3--3--3----------------------------2--2--2--2----3--3--3--3------
E---------------------------3--3--3--3---------------------------------

Chorus part 2  (Don't wanna stop...)
G----------------------------------------------------------------------
D----------------------------0--------------------------------0--------
A----------2-2-2-2--3-3-3-3-----------------2-2-2-2--3-3-3-3----3--2-0-
E-3-3-3-3--------------------------3-3-3-3-----------------------------
[ Tab from: http://www.guitartabs.cc/tabs/g/good_charlotte/dont_wanna_stop_btab.html ]
Verse 2
G----------------------------------------------------------------
D--------------------------------------------0--0--0--0----------(x4)
A-----------------2--2--2--2----3--3--3--3-----------------------
E---3--3--3--3---------------------------------------------------

Chorus part 1
G----------------------------------------------------------------------
D--------------------0--0--0--0----------------------------------------
A-----3--3--3--3-----------------------------------2--2--2--2----------
E-----------------------------------3--3--3--3-------------------------

G----------------------------------------------------------------------
D---------------0--0--0--0-----------------------------------------0---
A--3--3--3--3----------------------------2--2--2--2---3--3--3--3-------
E---------------------------3--3--3--3---------------------------------

Chorus part 2
G----------------------------------------------------------------------
D----------------------------0---------------------------------0-0-0-0-
A----------2-2-2-2--3-3-3-3------------------2-2-2-2--3-3-3-3----------
E-3-3-3-3---------------------------3-3-3-3----------------------------

Bridge  (This has gone on...)
G------------------------------------------------------------
D------------------------------0--0--0--0---0--0--0--0-------(x4)
A----3--3--3--3----------------------------------------------
E-----------------3--3--3--3---------------------------------

Chorus part 1
G----------------------------------------------------------------------
D----------0-0-0-0----------------------------0-0-0-0------------------
A-3-3-3-3-------------------2-2-2-2--3-3-3-3-------------------2-2-2-2-
E-------------------3-3-3-3----------------------------3-3-3-3---------

G----------------------------------------------------------------E
D---------------0--0--0--0---0--0--0--0---0--0--0--0---0----------N
A--3--3--3--3------------------------------------------------------D
E-------------------------------------------------------------------!
Comments