Good Charlotte - Day That I Die Chords & Tabs

 

Day That I Die Chords & Tabs

Good Charlotte Chords & Tabs

Version: 2 Type: Tab 0 ratings
1 star 2 stars 3 stars 4 stars 5 stars
comments

Day That I Die Tab

   
Song:The Day I Die
Artist: GC
Album:The Young and the Hopeless
Tabbed by: zorpheus, email any requests or comments to zorpheus99@hotmail.com
or add me to your MSN Messenger!

Except for the intro, this is just chords throughout the song!
Intro

|---------------------------------------------------------------------------------|
|---------------------------------------------------------------------------------|
|-------------------------------------------------------------2-----2-----2-----2-|
|-------------------------------------------------------2-2h4---2h4---2h4---2h4---|
|-2-4-4-4-2-4-2-2-2-4-5-4-2-0-4-2-0-2-4-4-4-2-4-5-4-2-0---------------------------|
|---------------------------------------------------------------------------------|

Verse strummed twice

     A                 E      D
|----0-0-0-0-0-0-0-0---0------3--------------------------------------|
|----2-2-2-0-2-0-0-0---0------2--------------------------------------|
|----2-2-2-2-2-2-2-2---1-x-6--3-x-6----------------------------------|
|----2-2-2-2-2-2-2-2---2------0--------------------------------------|
|----0-0-0-0-0-0-0-0---2---------------------------------------------|
|----------------------0---------------------------------------------|

Mid Verse
  Am        E     D
|--0--------0-----3----------|
|--1--------0-----2-x12------|
|--2--------1-----3----------|
|--2-x6-----2-x6--0----------|
|--0--------2----------------|
|--0--------0----------------|

Verse
[ Tab from: http://www.guitartabs.cc/tabs/g/good_charlotte/day_that_i_die_tab_ver_2.html ]
Pre Chorus twice
    E      A
|---0------0---------------------------------------------------------|
|---0------2---------------------------------------------------------|
|---1-x6---2-x6- stop on last A--------------------------------------|
|---2------2---------------------------------------------------------|
|---2------0---------------------------------------------------------|
|---0----------------------------------------------------------------|


Chorus play twice

   A     E     D     A
|--0-----0-----3-----0------------------------------------------------|
|--2-----0-----2-----2------------------------------------------------|
|--2-x6--1-x6--3-x6--2-x6---------------------------------------------|
|--2-----2-----0-----2------------------------------------------------|
|--0-----2-----------0------------------------------------------------|
|--------0------------------------------------------------------------|


Verse

Mid Verse

Pre Chorus 

Chorus

Intro (solo)

Pre Chorus x3

Chorus

Ending
|-0----0-----3---------------------------|
|-2----0-----2---------------------------|
|-2-x6-1-x6--3-x6------------------------|
|-2----2-----0---------------------------|
|-0----2---------------------------------|
|------0---------------------------------|

Thats it! A great GC song off their new album, The Young and the Hopeless!
any comments questions, requests just email me at the address above.
or add me to ur MSN Messenger!
Later!





Comments