Good Charlotte - Complicated Chords & Tabs

 

Complicated Chords & Tabs

Good Charlotte Chords & Tabs

Version: 2 Type: Tab 0 ratings
1 star 2 stars 3 stars 4 stars 5 stars
comments

Complicated Tab

   
-------------------------------------------------------------------------------
			     Complicated - Good Charlotte
-------------------------------------------------------------------------------
Tabbed by:Beeefstu4

Tuning:Standard

Intro
e|-----------0--------------------|
B|--------------1-----------------|
G|-----3-----------3--------------|
D|--------2------------2----------|
A|---3---------------------3------|
E|--------------------------------|
 
Verse
        Four P.M.s       Two P.M.s
e|--0-0--------------1-1---------------|
B|--1-1--------------1-1---------------|
G|--3-3--------------2-2---------------|  Go Til Start Of Chorus "And We've 
D|--2-2--------------3-3---------------|  Been Here"
A|--3-3--------------0-0---------------|
E|--X-X--------------X-X---------------|

Chorus
    C     G     A     E     A     E       G
e|-0-0---3-3---0-0---0-0---0-0---0-0---3-3-3-3----|
B|-1-1---3-3---2-2---0-0---2-2---0-0---3-3-3-3----|
G|-0-0---0-0---2-2---1-1---2-2---1-1---0-0-0-0----|  Go Back To Verse at
D|-2-2---0-0---2-2---2-2---2-2---2-2---0-0-0-0----|  "So Complicated"
A|-3-3---2-2---0-0---2-2---0-0---2-2---2-2-2-2----|
E|-0-0---3-3---X-X---0-0---X-X---0-0---3-3-3-3----|

Verse
        Four P.M.s       Two P.M.s
e|--0-0--------------1-1---------------|
B|--1-1--------------1-1---------------|
G|--3-3--------------2-2---------------|  Go Til Start Of Chorus "And We've 
D|--2-2--------------3-3---------------|  Been Here"
A|--3-3--------------0-0---------------|
E|--X-X--------------X-X---------------|
[ Tab from: http://www.guitartabs.cc/tabs/g/good_charlotte/complicated_tab_ver_2.html ]
Chorus
    C     G     A     E     A     E       G
e|-0-0---3-3---0-0---0-0---0-0---0-0---3-3-3-3----|
B|-1-1---3-3---2-2---0-0---2-2---0-0---3-3-3-3----|
G|-0-0---0-0---2-2---1-1---2-2---1-1---0-0-0-0----|  Go Back To Verse at
D|-2-2---0-0---2-2---2-2---2-2---2-2---0-0-0-0----|  "So Complicated"
A|-3-3---2-2---0-0---2-2---0-0---2-2---2-2-2-2----|
E|-0-0---3-3---X-X---0-0---X-X---0-0---3-3-3-3----|

Verse
        Four P.M.s       Two P.M.s
e|--0-0--------------1-1---------------|
B|--1-1--------------1-1---------------|
G|--3-3--------------2-2---------------|  Go Til "You had a second chance"
D|--2-2--------------3-3---------------|  
A|--3-3--------------0-0---------------|
E|--X-X--------------X-X---------------|

Palm Mute just the top two strings for speed
e|---------------------------------------|
B|---------------------------------------|
G|---------------------------------------| Go Til "And we've Been Here"
D|---------------------------------------|
A|-----X---X-----------------------------|
E|-----X---X-----------------------------|

Chorus
    C     G     A     E     A     E       G
e|-0-0---3-3---0-0---0-0---0-0---0-0---3-3-3-3----|
B|-1-1---3-3---2-2---0-0---2-2---0-0---3-3-3-3----|
G|-0-0---0-0---2-2---1-1---2-2---1-1---0-0-0-0----|  Go Back To Verse at
D|-2-2---0-0---2-2---2-2---2-2---2-2---0-0-0-0----|  "So Complicated"
A|-3-3---2-2---0-0---2-2---0-0---2-2---2-2-2-2----|
E|-0-0---3-3---X-X---0-0---X-X---0-0---3-3-3-3----|

Verse
        Four P.M.s       Two P.M.s
e|--0-0--------------1-1---------------|
B|--1-1--------------1-1---------------|
G|--3-3--------------2-2---------------|   Pause And Do Outro the same
D|--2-2--------------3-3---------------|  
A|--3-3--------------0-0---------------|
E|--X-X--------------X-X---------------|
Comments