Good Charlotte - Clique Chords & Tabs

 

Clique Chords & Tabs

Good Charlotte Chords & Tabs

Version: 1 Type: Tab 0 ratings
1 star 2 stars 3 stars 4 stars 5 stars
comments

Clique Tab

SONG: The Click (Clique)
ARTIST: Good Charlotte
TYPE: Guitar Tab
TABBED BY: Coolguitarplaya2 
EMAIL: rockstar@digitalusa.net
COMMENTS: This is my first tab, so I hope u like it. This song isn’t that hard. It took me about ten minutes to learn, but I’ve been playing for eight years and I’m 14 years old.

Intro: Guitar 1 play 4 times
e:-------------------------------------------------------------------------------
b:-------------------------------------------------------------------------------
g:-------------------------------------------------------------------------------
d:-0-2-4-2-0-2-4-2-0-2-4-2-4-5-2-0---------------------------------------
a:-------------------------------------------------------------------------------
e:-------------------------------------------------------------------------------

Verse: Guitar 2 plays 2 times through the second half of the first verse
e:-------------------------------------------------------------------------------
b:-------------------------------------------------------------------------------
g:--7---------------------------------------------------------------------------
d:--7-7-------7--5---------5--7----------After second time:---777777----
a:--5-7-------7--5---------5--7-----------------------------------777777-----
e:----5-------5--3---------3--5-----------------------------------555555------

Chorus: Guitar 2 plays 4 times
e:-------------------------------------------------------------------------------
b:-------------------------------------------------------------------------------
g:---7-7-7-7---------------------------------------------------------------------
d:---7-7-7-7-7-7-7-7-5-5-5-5-7-7-7-7-------After 2nd and 4th times:-7--7--7--7--
a:---5-5-5-5-7-7-7-7-5-5-5-5-5-5-5-5-----------------------------------7--7--7--7--
e:-------------5-5-5-5-3-3-3-3-5-5-5-5-----------------------------------5--5--5--5-

Then guitar 1 plays the intro again twice
[ Tab from: http://www.guitartabs.cc/tabs/g/good_charlotte/clique_tab.html ]
Verse 2: Guitar 2 plays 4 times. Guitar 1 plays intro during 3rd and 4th times
e:-------------------------------------------------------------------------------
b:-------------------------------------------------------------------------------
g:----7--------------------------------------------------------------------------
d:----7-----7----5----7----------------------------After 4th time:-77777---------
a:----5----7----5----7-----------------------------------------------77777-------
e:---------5----3----5-----------------------------------------------55555-------

Guitar 2 plays chorus again

Outro: guitar 2 plays twice
e:-------------------------------------------------------------------------------
b:-------------------------------------------------------------------------------
g:--7----------------------------------------------------------------------------
d:--7--7--5---------------------------------------------------------------------
a:--5--7--5----------------------------------------------------------------------
e:-----5--3----------------------------------------------------------------------


Guitar 1 plays this after outro
e:-------------------------------------------------------------------------------
b:-------------------------------------------------------------------------------
g:----7-7------------------------------------------------------------------------
d:----7-7-7-7-5-5----------------------------------------------------------------
a:----5-5-7-7-5-5---------------------------------------------------------------
e:---------5-5-3-3---------------------------------------------------------------


Then guitar 1 plays intro 4 times
Then guitar 2 plays verse twice
Then guitar 1 plays intro 4 times and guitar 2 ends with:
e:-------------------------------------------------------------------------------
b:-------------------------------------------------------------------------------
g:--7----------------------------------------------------------------------------
d:--7-7--5-----------------------------------------------------------------------
a:--5-7--5---------------------------------------------------------------------
e:----5--3---------------------------------------------------------------------
             ^
        Let ring

Well, that’s about it. I am now sick of listening to the song to write this tab but I enjoyed doing it. Even if you can’t play real sheet music, but just play tabs and think you’re good, you should know a good song now. Only E-mail me if you have good comments or suggestions for my future tabs. 
Comments