Good Charlotte - Click Chords & Tabs

 

Click Chords & Tabs

Good Charlotte Chords & Tabs

Version: 2 Type: Tab 0 ratings
1 star 2 stars 3 stars 4 stars 5 stars
comments

Click Tab

Band:Good Charlotte
Song:The click undergradsversion
Guitarists:Benji and Billy
Tabbed by:Justin(nitsuj474@hotmail.com)

intro
e-------------------------------------
b-------------------------------------
g-------------------------------------
D-------------------------------------
A-5-7-9-7---5-7-9-7----5-7-9let ring--
E-------------------------------------

verse-play twice  *-non p.m, _-p.m
e-------------------------------------------
b-------------------------------------------
g-------------------------------------------
D-7-----------------------------------------
A-5//////----7----------5-------------------
E------------5//////----3////////////-------
  *______    *______    *____________
[ Tab from: http://www.guitartabs.cc/tabs/g/good_charlotte/click_tab_ver_2.html ]
verse continued-play once
e------------------------------------
b------------------------------------
g------------------------------------
D------------------------------------
A-555--777-9--777-999-10-777---------
E------------------------------------

chorus
e----------------------------------------
b----------------------------------------
g----------------------------------------
D-7---------------------------------------
A-5///////-7----------9-----------5-------
E----------5///////---7///////----3///////

e-----------------------------------------
b-----------------------------------------
g-----------------------------------------
D-7---------------------------------------
A-5///////-7----------5--------------------
E----------5///////---3let ring-----------
Comments