Good Charlotte - Change Chords & Tabs

 

Change Chords & Tabs

Good Charlotte Chords & Tabs

Version: 1 Type: Tab 0 ratings
1 star 2 stars 3 stars 4 stars 5 stars
comments

Change Tab

   
some of this is fast some is slow you figure it out

Intro
 Em7  G  Em7  G  Em7  G  Em7  G
E-3---3---3---3---3---3---3---3
B-3---3---3---3---3---3---3---3
G-0---0---0---0---0---0---0---0
D-2---0---2---0---2---0---2---0
A-2---2---2---2---2---2---2---2
E-0---3---0---3---0---3---0---3

 Em7  G  Em7  G  Em7  G  Em7  G 
E-3---3---3---3---3---3---3---3
B-3---3---3---3---3---3---3---3
G-0---0---0---0---0---0---0---0
D-2---0---2---0---2---0---2---0
A-2---2---2---2---2---2---2---2
E-0---3---0---3---0---3---0---3


  D   G   D   G 
E-2---3---2---3
B-3---3---3---3
G-2---0---2---0
D-0---0---0---0
A-0---2---0---2
E-0---3---0---3

D   G   C   D
E-2---3---0---2
B-3---3---1---3
G-2---0---0---2
D-0---0---2---0
A-0---2---3---0
E-----3---3----

  G  A7sus4  C   D  Dsus D   G   G  A7sus4  C   D  Dsus D   G
E-3---3------0---2---3---2---3---3---3------0---2---3---2---3
B-3---3------1---3---3---3---3---3---3------1---3---3---3---3
G-0---0------0---2---2---2---0---0---0------0---2---2---2---0
D-0---2------2---0---0---0---0---0---2------2---0---0---0---0
A-2---0------3---0---0---0---2---2---0------3---0---0---0---2
E-3---0------3---------------3---3---0------3---------------3 

  G  A7sus4  C   D  Dsus D   G   G  A7sus4  C   D  Dsus D   G
E-3---3------0---2---3---2---3---3---3------0---2---3---2---3
B-3---3------1---3---3---3---3---3---3------1---3---3---3---3
G-0---0------0---2---2---2---0---0---0------0---2---2---2---0
D-0---2------2---0---0---0---0---0---2------2---0---0---0---0
A-2---0------3---0---0---0---2---2---0------3---0---0---0---2
E-3---0------3---------------3---3---0------3---------------3  

  G  A7sus4  C   D  Dsus D   G   G  A7sus4  C   D  Dsus D   G
E-3---3------0---2---3---2---3---3---3------0---2---3---2---3
B-3---3------1---3---3---3---3---3---3------1---3---3---3---3
G-0---0------0---2---2---2---0---0---0------0---2---2---2---0
D-0---2------2---0---0---0---0---0---2------2---0---0---0---0
A-2---0------3---0---0---0---2---2---0------3---0---0---0---2
E-3---0------3---------------3---3---0------3---------------3  

  G  A7sus4  C   D  Dsus D  Em7
E-3---3------0---2---3---2---3
B-3---3------1---3---3---3---3
G-0---0------0---2---2---2---0
D-0---2------2---0---0---0---2
A-2---0------3---0---0---0---2
E-3---0------3---------------0
[ Tab from: http://www.guitartabs.cc/tabs/g/good_charlotte/change_tab.html ]
 Em7  G  Em7  G 
E-3---3---3---3
B-3---3---3---3
G-0---0---0---0
D-2---0---2---0
A-2---2---2---2
E-0---3---0---3 

 Em7  G  Em7  G  Em7  G  Em7  G 
E-3---3---3---3---3---3---3---3
B-3---3---3---3---3---3---3---3
G-0---0---0---0---0---0---0---0
D-2---0---2---0---2---0---2---0
A-2---2---2---2---2---2---2---2
E-0---3---0---3---0---3---0---3


  D   Am  D   Am  D   Am  
E-2---0---2---0---2---0--
B-3---1---3---1---3---1--
G-2---2---2---2---2---2--
D-0---2---0---2---0---2--
A-0---0---0---0---0---0--
E-0---0---0---0---0---0—

  D   C 
E-2---0
B-3---1
G-2---0
D-0---2
A-0---3
E-0---3

G  A7sus4  C   D  Dsus D   G   G  A7sus4  C   D  Dsus D   G
E-3---3------0---2---3---2---3---3---3------0---2---3---2---3
B-3---3------1---3---3---3---3---3---3------1---3---3---3---3
G-0---0------0---2---2---2---0---0---0------0---2---2---2---0
D-0---2------2---0---0---0---0---0---2------2---0---0---0---0
A-2---0------3---0---0---0---2---2---0------3---0---0---0---2
E-3---0------3---------------3---3---0------3---------------3 

  G  A7sus4  C   D  Dsus D   G   G  A7sus4  C   D  Dsus D   G
E-3---3------0---2---3---2---3---3---3------0---2---3---2---3
B-3---3------1---3---3---3---3---3---3------1---3---3---3---3
G-0---0------0---2---2---2---0---0---0------0---2---2---2---0
D-0---2------2---0---0---0---0---0---2------2---0---0---0---0
A-2---0------3---0---0---0---2---2---0------3---0---0---0---2
E-3---0------3---------------3---3---0------3---------------3  
G  A7sus4  C   D  Dsus D   G   G  A7sus4  C   D  Dsus D   G
E-3---3------0---2---3---2---3---3---3------0---2---3---2---3
B-3---3------1---3---3---3---3---3---3------1---3---3---3---3
G-0---0------0---2---2---2---0---0---0------0---2---2---2---0
D-0---2------2---0---0---0---0---0---2------2---0---0---0---0
A-2---0------3---0---0---0---2---2---0------3---0---0---0---2
E-3---0------3---------------3---3---0------3---------------3 

  G  A7sus4  C   D  Dsus D   G   G  A7sus4  C   D  Dsus D   G
E-3---3------0---2---3---2---3---3---3------0---2---3---2---3
B-3---3------1---3---3---3---3---3---3------1---3---3---3---3
G-0---0------0---2---2---2---0---0---0------0---2---2---2---0
D-0---2------2---0---0---0---0---0---2------2---0---0---0---0
A-2---0------3---0---0---0---2---2---0------3---0---0---0---2
E-3---0------3---------------3---3---0------3---------------3  

Comments