Good Charlotte - Change Acoustic Chords & Tabs

 

Change Acoustic Chords & Tabs

Good Charlotte Chords & Tabs

Version: 1 Type: Tab 0 ratings
1 star 2 stars 3 stars 4 stars 5 stars
comments

Change Acoustic Tab

   
CHANGE (ACOUSTIC) - Good Charlotte


Tabbed by: traci
email: supergirlcantwalk@hotmail.com

Intro
 Em7  G  Em7  G 
E-3---3---3---3
B-3---3---3---3
G-0---0---0---0
D-2---0---2---0
A-2---2---2---2
E-0---3---0---3   play twice

Verse One and Two
"i am lost in the see through..."
 Em7  G
E-3---3
B-3---3
G-0---0
D-2---0
A-2---2
E-0---3 play 4x

Bridge One
"each day just drags on by..."
  D   G   
E-2---3
B-3---3
G-2---0
D-0---0
A-0---2
E-0---3 play twice

"just when i think i could die..."
  D   G   C   D
E-2---3---0---2
B-3---3---1---3
G-2---0---0---2
D-0---0---2---0
A-0---2---3---0
E-----3---3----
[ Tab from: http://www.guitartabs.cc/tabs/g/good_charlotte/change_acoustic_tab.html ]
Chorus
"and you sang...you cant change..."
  G  A7sus4  C   D  Dsus D   G
E-3---3------0---2---3---2---3
B-3---3------1---3---3---3---3
G-0---0------0---2---2---2---0
D-0---2------2---0---0---0---0
A-2---0------3---0---0---0---2
E-3---0------3---------------3  play 4x

Guitar Interlude
  G  A7sus4  C   D  Dsus D   G
E-3---3------0---2---3---2---3
B-3---3------1---3---3---3---3
G-0---0------0---2---2---2---0
D-0---2------2---0---0---0---0
A-2---0------3---0---0---0---2
E-3---0------3---------------3 play twice

  G  A7sus4  C   D  Dsus D  Em7
E-3---3------0---2---3---2---3
B-3---3------1---3---3---3---3
G-0---0------0---2---2---2---0
D-0---2------2---0---0---0---2
A-2---0------3---0---0---0---2
E-3---0------3---------------0

 Em7  G  Em7  G 
E-3---3---3---3
B-3---3---3---3
G-0---0---0---0
D-2---0---2---0
A-2---2---2---2
E-0---3---0---3 

Verse Two (same as verse one)

Bridge 2
"i practiced all the things id say"
  D   Am  
E-2---0
B-3---1
G-2---2
D-0---2
A-0---0
E-0---0 play 3x

  D   C 
E-2---0
B-3---1
G-2---0
D-0---2
A-0---3
E-0---3

Chorus and fade
Comments