Good Charlotte - Boys And Girls Chords & Tabs

 

Boys And Girls Chords & Tabs

Good Charlotte Chords & Tabs

Version: 2 Type: Tab 0 ratings
1 star 2 stars 3 stars 4 stars 5 stars
comments

Boys And Girls Tab

   
-------------------------------------------------------------------------------
			     Boys and Girls - Good Charlotte
-----------------------------------------------------------------------------
Tabbed by:Michael Felix
Email:
[ Tab from: http://www.guitartabs.cc/tabs/g/good_charlotte/boys_and_girls_tab_ver_2.html ]
Tuning:
intro
e|--------------------|----------------------|--4--|------------------------|
B|--------------------|----------------------|--4--|------------------------|
G|-----5-------7------|-(palm mute)----------|--5--|------------------------|
D|---6-----------8----|--6-6-6/8-8-8-8-8-----|--6--|------------------------|
A|--------------------|--6-6-6/8-8-8-8-8-----|--6--|------------------------|
E|-4---------6--------|--4-4-4/6-6-6-6-6-----|--4--|16x---------------------|
8x  not much to say... 4x 'cause he pays...
chorus
e|-6-6-6-6-6-6-6-6-6-6-6-6-6-6-6-6--4-4-4-4-4-4-4-4-4-4-4-4-4-4-4-4-|-------|
B|-8-8-8-8-8-8-8-8-6-6-6-6-6-6-6-6--4-4-4-4-4-4-4-4-4-4-4-4-4-4-4-4-|-------|
G|-8-8-8-8-8-8-8-8-7-7-7-7-7-7-7-7--5-5-5-5-5-5-5-5-5-5-5-5-5-5-5-5-|-------|
D|-8-8-8-8-8-8-8-8-8-8-8-8-8-8-8-8--6-6-6-6-6-6-6-6-6-6-6-6-6-6-6-6-|-------|
A|----------------------------------6-6-6-6-6-6-6-6-6-6-6-6-6-6-6-6-|-------|
E|----------------------------------4-4-4-4-4-4-4-4-4-4-4-4-4-4-4-4-|-------|
                                                                   2x
e|--------------------|----------------------|--4--|------------------------|
B|--------------------|----------------------|--4--|------------------------|
G|-----5-------7------|-(palm mute)----------|--5--|------------------------|
D|---6-----------8----|--6-6-6/8-8-8-8-8-----|--6--|------------------------|
A|--------------------|--6-6-6/8-8-8-8-8-----|--6--|------------------------|
E|-4---------6--------|--4-4-4/6-6-6-6-6-----|--4--|16x---------------------|
8x                     4x
e|-6-6-6-6-6-6-6-6-6-6-6-6-6-6-6-6--4-4-4-4-4-4-4-4-4-4-4-4-4-4-4-4-|-------|
B|-8-8-8-8-8-8-8-8-6-6-6-6-6-6-6-6--4-4-4-4-4-4-4-4-4-4-4-4-4-4-4-4-|-------|
G|-8-8-8-8-8-8-8-8-7-7-7-7-7-7-7-7--5-5-5-5-5-5-5-5-5-5-5-5-5-5-5-5-|-------|
D|-8-8-8-8-8-8-8-8-8-8-8-8-8-8-8-8--6-6-6-6-6-6-6-6-6-6-6-6-6-6-6-6-|-------|
A|----------------------------------6-6-6-6-6-6-6-6-6-6-6-6-6-6-6-6-|-------|
E|----------------------------------4-4-4-4-4-4-4-4-4-4-4-4-4-4-4-4-|-------|
                                                                   4x
e|-6/8--4---4--4--4-4--8-\6--4---4--4--4-4-|--6-|---------------------------|
B|-6/8--4---4--4--4-4--8-\6--4---4--4--4-4-|--6-|---------------------------|
G|-7/8--5---5--5--5-5--8-\7--5---5--5--5-5-|--7-|---------------------------|
D|-8/10-6---6--6--6-6--10\8--6---6--6--6-6-|--8-|---------------------------|
A|-8/10-6---6--6--6-6--10\8--6---6--6--6-6-|--8-|---------------------------|
E|-6/8--4---4--4--6-6--8-\6--4---4--4--4-4-|--6-|---------------------------|
                                          4x  16x
chorus
e|-6---6---6---6---6---6---6---6--4-4-4-4-4-4-4-4-4-4-4-4-4-4-4-4-|---------|
B|-8---8---8---8---6---6---6---6--4-4-4-4-4-4-4-4-4-4-4-4-4-4-4-4-|---------|
G|-8---8---8---8---7---7---7---7--5-5-5-5-5-5-5-5-5-5-5-5-5-5-5-5-|---------|
D|-8---8---8---8---8---8---8---8--6-6-6-6-6-6-6-6-6-6-6-6-6-6-6-6-|---------|
A|--------------------------------6-6-6-6-6-6-6-6-6-6-6-6-6-6-6-6-|---------|
E|--------------------------------4-4-4-4-4-4-4-4-4-4-4-4-4-4-4-4-|---------|
                                                                 2x
e|-6---6-6-6---6-6--6-6-6---6---6-6-4-4-4-4-4-4-4-4-4-4-4-4-4-4-4-4-|-------|
B|-8---8-8-8---8-8--6-6-6---6---6-6-4-4-4-4-4-4-4-4-4-4-4-4-4-4-4-4-|-------|
G|-8---8-8-8---8-8--7-7-7---7---7-7-5-5-5-5-5-5-5-5-5-5-5-5-5-5-5-5-|-------|
D|-8---8-8-8---8-8--8-8-8---8---8-8-6-6-6-6-6-6-6-6-6-6-6-6-6-6-6-6-|-------|
A|----------------------------------6-6-6-6-6-6-6-6-6-6-6-6-6-6-6-6-|-------|
E|----------------------------------4-4-4-4-4-4-4-4-4-4-4-4-4-4-4-4-|-------|
                                                                 2x
e|--------------------|-----------------------------------------------------|
B|--------------------|-----------------------------------------------------|
G|-----5-------7------|-----------------------------------------------------|
D|---6-----------8----|-----------------------------------------------------|
A|--------------------|-----------------------------------------------------|
E|-4---------6--------|-----------------------------------------------------|
        fade out

| /  slide up
| \  slide down
| h  hammer-on
| p  pull-off
| ~  vibrato
| +  harmonic
| x  Mute note
===============================================================================
Comments