Good Charlotte - Boys And Girls Chords & Tabs

 

Boys And Girls Chords & Tabs

Good Charlotte Chords & Tabs

Version: 1 Type: Tab 6 ratings
1 star 2 stars 3 stars 4 stars 5 stars
comments

Boys And Girls Tab

Intro-if you listen to song you'll know the rhythm

E------------------------------
B----0-----------0-------------
G----------6-----------6-------
D---5-----7----5------7--------
A------------------------------
E--3---5------3----5-----------

Keep playing  til the chorus. 

Play this for the Chorus:
E-----------------------------------------------------------------------------------
B-----------------------------------------------------------------------------------
G-----------------------------------------------------------------------------------
D--7--7--7--7--7--7--7--7--7--7--7--7--7--7--7--7-----------------------------------
A--5--5--5--5--5--5--5--5--4--4--4--4--4--4--4--4--5-5-5-5-5-5-5-5-5-5-5-5-5-5-5-5--
E--------------------------------------------------3-3-3-3-3-3-3-3-3-3-3-3-3-3-3-3--
   *Girls  dont  like boys *girls  like  cars and  *money...........................
   *Boys  will laugh  at   *girls when they're not *funny...........................

***(play the new chord on the word w/ an asterik(*)***

[ Tab from: http://www.guitartabs.cc/tabs/g/good_charlotte/boys_and_girls_tab.html ]
Then the little intro thing kicks in again.
This will be the same, over and over, until you get to where he goes "Lets go!"
At that point, play this:

E---------------------------------------------------
B---------------------------------------------------
G---------------------------------------------------
D--------------7---------------------7--------------
A---7s9-5-5-5--5-7-5-5-5--7s9-5-5-5--5-7-5-------
E---5s7-3-3-3----5-3-3-3--5s7-3-3-3----5-3-------


E-------------------------------------------------------------
B-------------------------------------------------------------
G-------------------------------------------------------------
D--------------7----------------------------------------------
A---7s9-5-5-5--5-7-5-5-5--7s9-5-5-5-5-5-5-5-5-5-5-5-5-5-5-5-5-
E---5s7-3-3-3----5-3-3-3--5s7-3-3-3-3-3-3-3-3-3-3-3-3-3-3-3-3-

there is also another guitar in there, but i just did this part for y'all.
you can play the song using everything shown here.
Just listen to the song to figure where it all goes.

Questions or comments to: skiski1019@hotmail.com
Hope you enjoyed this tab

!!!*GOOD CHARLOTTE RULES*!!!
Comments