Good Charlotte - Boys And Girl Chords & Tabs

 

Boys And Girl Chords & Tabs

Good Charlotte Chords & Tabs

Version: 1 Type: Tab 0 ratings
1 star 2 stars 3 stars 4 stars 5 stars
comments

Boys And Girl Tab

Intro 1              Intor 2

e|----------0-----|  e|-----------|
B|---2--------4---|  B|---2-------|
G|-----2------4---|  G|-----2-----|
D|----------------|  D|-----------|
A|-0-----2--------|  A|-0-----2---|
E|----------------|  E|-----------|

Pre Chorus     (Fade the the palm mute out to the end)

e|-----------------------------------------------------------|
B|-----------------------------------------------------------|
G|-----------------------------------------------------------|
D|-----------------------------------------------------------|
A|-77799999-77799999-77799999-77799999-7777777777777777------|
E|-55577777-55577777-55577777-55577777-5555555555555555------|
                                       |_______________|
                                          Palm mute
Chorus 1

e|---------------------------------------|
B|---------------------------------------|
G|---------------------------------------|
D|-99999999-99999999---------------------|
A|-77777777-66666666--7777777777777777---|
E|--------------------5555555555555555---|


Chorus 2
[ Tab from: http://www.guitartabs.cc/tabs/g/good_charlotte/boys_and_girl_tab.html ]
e|------------------------------------|
B|------------------------------------|
G|------------------------------------|
D|-9-9-9-9-9-9-9-9--------------------|
A|-7-7-7-7-6-6-6-6-7777777777777777---|
E|-----------------5555555555555555---|

Bridge

e|------------------------------------------------------------------------|
B|------------------------------------------------------------------------|
G|------------------------------------------------------------------------|
D|------------------------------------------------------------------------|
A|-9-11-7-7-7-99-11-9-7-7-7--9-11-7-7-7-99-11-9-7--9-11-7-7-7-99-11-9-7---|
E|-7-9--5-5-5-77-9--7-5-5-5--7-9--5-5-5-77-9--7-5--7-9--5-5-5-77-9--7-5---|

e|---------------------------------|
B|---------------------------------|
G|---------------------------------|
D|---------------------------------|
A|-9-11-7-7-7-999999999999999999---|
E|-7-9--5-5-5-777777777777777777---|

Order:
Intro-1 x8
Pre Chorus x1
Chorus-1 x2
Intro-1 x3
Intro-2 x1
Intro-1 x4
Pre Chorus x1
Chorus-1 x4
Bridge x1
Chorus-2 x2
Chorus-1 x2
Intro-1 ca.x36 (It will be faded out)
Comments