Good Charlotte - A New Beginning Chords & Tabs

 

A New Beginning Chords & Tabs

Good Charlotte Chords & Tabs

Version: 4 Type: Tab 0 ratings
1 star 2 stars 3 stars 4 stars 5 stars
comments

A New Beginning Tab

   
Artist: Good Charlotte
Song: A New Beginning
Tabber: son_of_page
PLEASE RATE THIS TAB AND LEAVE COMMENTS
There area few versions written, but all are wrong.
This song is in half-step and then in drop D.
Tuning is as follows.

MAIN RIFF
Eb|-------------------------------------|
Bb|-------------------------------------|
Gb|-------------------------------------|
Db|-0--------3-------5--------8---------|
Ab|-0-(x12)--3-(x12)-5-(x12)--8-(x12)---|
Db|-0--------3-------5--------8---------|

|-------------------------------------|
|-------------------------------------|
|-------------------------------------|
|-0--------3-------8--------7---------|
|-0-(x12)--3-(x12)-8-(x12)--7-(x12)---|
|-0--------3-------8--------7---------|

G.1
|-----------------------|
|--15---13---12---11----|
|-----------------------|
|-----------------------|
|-----------------------|
|-----------------------|

G.2
|-------------------------------------|
|-------------------------------------|
|-------------------------------------|
|-0--------3-------5--------8---------|
|-0-(x12)--3-(x12)-5-(x12)--8-(x12)---|
|-0--------3-------5--------8---------|


G.1
|-----------------------|
|--15---15---15---14----|
|-----------------------|
|-----------------------|
|-----------------------|
|-----------------------|


G.2
|-------------------------------------|
|-------------------------------------|
|-------------------------------------|
|-0--------8-------5--------7---------|
|-0-(x12)--8-(x12)-5-(x12)--7-(x12)---|
|-0--------8-------5--------7---------|

[ Tab from: http://www.guitartabs.cc/tabs/g/good_charlotte/a_new_beginning_tab_ver_4.html ]
INTERLUDE
G.1
|--------------------------------------------|
|--13^1513^15-13^15-13^15---15(let ring)----|
|--------------------------------------------|
|--------------------------------------------|
|--------------------------------------------|
|--------------------------------------------|
G.2
|----------------------------------------------------|
|----------------------------------------------------|
|----------------------------------------------------|
|-8-8-8-8-8-5--8-8-8-8-8-5--8-8-8-8-8-5-8-8-8-8-8-5-|
|-8-8-8-8-8-5--8-8-8-8-8-5--8-8-8-8-8-5--8-8-8-8-8-5-|
|-8-8-8-8-8-5--8-8-8-8-8-5--8-8-8-8-8-5--8-8-8-8-8-5-|
PM. . . . . . . . . . . . .



G.1
|--------------------------------------|
|-----------------15---11--------------|
|--------------------------14---12-----|
|--------------------------------------|
|--------------------------------------|
|--------------------------------------|

MAIN RIFF
G.2
|-------------------------------------|
|-------------------------------------|
|-------------------------------------|
|-0--------3-------5--------8---------|
|-0-(x12)--3-(x12)-5-(x12)--8-(x12)---|
|-0--------3-------5--------8---------|

OUTRO

G.1
|------------------------|
|------------------------|
|-11---11---10---12---12-|
|------------------------|
|------------------------|
|------------------------|

OUTRO
G.2
|-------------------------------------|
|-------------------------------------|
|-------------------------------------|
|-0--------1-------3--------5---------|
|-0-(x12)--1-(x12)-3-(x12)--5-(x12)---|
|-0--------1-------3--------5---------|
Comments