Good Charlotte - A New Beginning Chords & Tabs

 

A New Beginning Chords & Tabs

Good Charlotte Chords & Tabs

Version: 2 Type: Tab 0 ratings
1 star 2 stars 3 stars 4 stars 5 stars
comments

A New Beginning Tab

This is the first tab i've ever done but its right.
These are just the main riffs but thats pretty much the whole song.
all strings are tuned down a half step, it is also in drop d
like this Db,Ab,Db,Gb,Bb,eb--low to high
crank the distortion!

Riff 1: when the guitar jumps in after about 35 seconds

eb|--x----x----x----x--|
Bb|--x----x----x----x--|
Gb|--x----x----x----x--|
Db|--0----3----5----8--|  1x       
Ab|--0----3----5----8--|
Db|--0----3----5----8--|
                           
Riff 2:
[ Tab from: http://www.guitartabs.cc/tabs/g/good_charlotte/a_new_beginning_tab_ver_2.html ]
eb|--x----x----x----x--|
Bb|--x----x----x----x--|
Gb|--x----x----x----x--|
Db|--0----3----8----5--|  1x       
Ab|--0----3----8----5--|
Db|--0----3----8----5--|


Riff 3:

eb|--x----x----x----x--|
Bb|--x----x----x----x--|
Gb|--x----x----x----x--|
Db|--0----8----3----5--|  1x       
Ab|--0----8----3----5--|
Db|--0----8----3----5--|


palm muted part:

eb|--x----x--|
Bb|--x----x--|
Gb|--x----x--|
Db|--8----5--|         
Ab|--8----5--|
Db|--8----5--|

Then back to riff 1
i'm not sure about the part at the end

sorry if it seems a little vague, but if you play along with the cd and listen
for the chord changes you'll have it down in no time its really a kickass song to play  
have fun!

e-mail me for comments
Comments