Good Charlotte - A New Beginning Chords & Tabs

 

A New Beginning Chords & Tabs

Good Charlotte Chords & Tabs

Version: 1 Type: Tab 0 ratings
1 star 2 stars 3 stars 4 stars 5 stars
comments

A New Beginning Tab

Band: Good Charlotte
Song: A New Beginning
Album: The Young and Hopeless
Tabbed By: Homie "G"

This is my first Tab I have ever done so please ad corrections. Peace!   ;P

Standard Tuning

Amp must have overdrive switched on, and distortion on the guitar as well
to get the sound right

Main Riff:
[ Tab from: http://www.guitartabs.cc/tabs/g/good_charlotte/a_new_beginning_tab.html ]
E-------------------------------------------------------------------------------
B-------------------------------------------------------------------------------
G-------------------------------------------------------------------------------
D-44-44-44-44-44-66-66-66-66-66-88-88-88-88-88-10--10--10--10--10---------------
A-44-44-44-44-44-66-66-66-66-66-88-88-88-88-88-10--10--10--10--10---------------
E-22-22-22-22-22-44-44-44-44-44-66-66-66-66-66-88--88--88--88--88---------------

Bridge:

E---------------------------------------------------------
B---------------------------------------------------------
G---------------------------------------------------------
D-4-4-4-44-6-6-6-66-8-8-8-88-10-10-10-1010----------------
A-4-4-4-44-6-6-6-66-8-8-8-88-10-10-10-1010----------------
E-2-2-2-22-4-4-4-44-6-6-6-66--8---8--88-8----------------

Outro:

E-------
B-------
G-------
D-10~~~-  Hold last note,  hitting the tremelo arm every half second
A-10~~~-
E--8-~~~

Order:

Nothing Until 0:37
Main Riff x 5
Bridge x 1
Main Riff x 7
Finish at 1:40
Outro (keep hitting tremelo arm slower every time until 1:50)
Comments