Goo Goo Dolls - Without You Here Chords & Tabs

 

Without You Here Chords & Tabs

Goo Goo Dolls Chords & Tabs

Version: 1 Type: Tab

Without You Here Tab

   
Withoout You Here
Goo Goo Dolls
Track number 5 form Let love in (2006)
Tunning: Open C CGCGce, Or as i play it DADGce (standard drop D with an open strings on 
the ent of the tab is how to play it
                                                 in this yunning thats closer to the 
one)

This is a great ballad, in my opinion the best in the new album, the two other tabs 
work really well,
But the didnt show the riff or some chord changes, so i tabbed it for those who dosent 
CHORDS tablature-
Enjoy it, is really easy and fun, there are a lot of "0", dont palmute it or you will 
the song.
The arrengement for a more usuall tunning is at the end, play as you like it.

Intro
             Am                        C
e||----------0-0-0-0-0-0-0--|--0-------0-0-0-0--||
c||----5-4---0-0-0-0-0-0-0--|--0--5-4--0-0-0-0--||
G||--5-------2-2-2-2-2-2-2--|--5-------0-0-0-0--||
C||----------4-4-4-4-4-4-4--|--7-------7-7-7-7--||
G||----------2-2-2-2-2-2-2--|--5-------5-5-5-5--||
C||----------0-0-0-0-0-0-0--|--0-------0-0-0-0--||


Verse 1

    Am                        C
e||--0-0-0-0-0-0-0-0-0-0--|--0-0-0-0-0-0-0-0-0-0--||
c||--0-0-0-0-0-0-0-0-0-0--|--0-0-0-0-0-0-0-0-0-0--||
G||--2-2-2-2-2-2-2-2-2-2--|--0-0-0-0-0-0-0-0-0-0--||
C||--4-4-4-4-4-4-4-4-4-4--|--7-7-7-7-7-7-7-7-7-7--||
G||--2-2-2-2-2-2-2-2-2-2--|--5-5-5-5-5-5-5-5-5-5--||
C||--0-0-0-0-0-0-0-0-0-0--|--0-0-0-0-0-0-0-0-0-0--||
Your love's..........sky   A moment in...reason why

    Am                        C
e||--0-0-0-0-0-0-0-0-0-0--|--0-0-0-0-0-0-0-0-0-0--||
c||--0-0-0-0-0-0-0-0-0-0--|--0-0-0-0-0-0-0-0-0-0--||
G||--2-2-2-2-2-2-2-2-2-2--|--0-0-0-0-0-0-0-0-0-0--||
C||--4-4-4-4-4-4-4-4-4-4--|--7-7-7-7-7-7-7-7-7-7--||
G||--2-2-2-2-2-2-2-2-2-2--|--5-5-5-5-5-5-5-5-5-5--||
C||--0-0-0-0-0-0-0-0-0-0--|--0-0-0-0-0-0-0-0-0-0--||
... still ...the emptiness...only one ..... breath

Pre-Chorus

     Am                        Gsus4add13            Fsus2     FM7           Fsus2     FM7
e||--0-0-0-0-0-0-0-0-0-0--|--0-0-0-0-0-0-0-0-0-0--|--0-0-0-0-0-0-0-0-0-0--|--0-0-0-0-0-0-0-0-0-0--||
c||--0-0-0-0-0-0-0-0-0-0--|--0-0-0-0-0-0-0-0-0-0--|--0-0-0-0-0-0-0-0-0-0--|--0-0-0-0-0-0-0-0-0-0--||
G||--2-2-2-2-2-2-2-2-2-2--|--0-0-0-0-0-0-0-0-0-0--|--0-0-0-0-0-4-4-4-4-4--|--0-0-0-0-0-4-4-4-4-4--||
C||--4-4-4-4-4-4-4-4-4-4--|--0-0-0-0-0-0-0-0-0-0--|--5-5-5-5-5-5-5-5-5-5--|--5-5-5-5-5-5-5-5-5-5--||
G||--2-2-2-2-2-2-2-2-2-2--|--7-7-7-7-7-7-7-7-7-7--|--5-5-5-5-5-5-5-5-5-5--|--5-5-5-5-5-5-5-5-5-5--||
C||--0-0-0-0-0-0-0-0-0-0--|--7-7-7-7-7-7-7-7-7-7--|--5-5-5-5-5-5-5-5-5-5--|--5-5-5-5-5-5-5-5-5-5--||
... give you .... just to   Feel your open arms    And I'm not sure I believe anything I feel

Chorus

    C                        Am                      Fsus2     FM7           C
e||--0-0-0-0-0-0-0-0-0-0--|--0-0-0-0-0-0-0-0-0-0--|--0-0-0-0-0-0-0-0-0-0--|--0-0-0-0-0-0-0-0-0-0--||
c||--0-0-0-0-0-0-0-0-0-0--|--0-0-0-0-0-0-0-0-0-0--|--0-0-0-0-0-0-0-0-0-0--|--0-0-0-0-0-0-0-0-0-0--||
G||--0-0-0-0-0-0-0-0-0-0--|--2-2-2-2-2-2-2-2-2-2--|--0-0-0-0-0-4-4-4-4-4--|--0-0-0-0-0-0-0-0-0-0--||
C||--7-7-7-7-7-7-7-7-7-7--|--4-4-4-4-4-4-4-4-4-4--|--5-5-5-5-5-5-5-5-5-5--|--7-7-7-7-7-7-7-7-7-7--||
G||--5-5-5-5-5-5-5-5-5-5--|--2-2-2-2-2-2-2-2-2-2--|--5-5-5-5-5-5-5-5-5-5--|--5-5-5-5-5-5-5-5-5-5--||
C||--0-0-0-0-0-0-0-0-0-0--|--0-0-0-0-0-0-0-0-0-0--|--5-5-5-5-5-5-5-5-5-5--|--0-0-0-0-0-0-0-0-0-0--||
And now, now that.... you're near There's nothing .. without you without you here...

Pre-Verse

              Am                        C
e||----------0-0-0-0-0-0-0--|--0-------0-0-0-0--||
c||----5-4---0-0-0-0-0-0-0--|--0--5-4--0-0-0-0--||
G||--5-------2-2-2-2-2-2-2--|--5-------0-0-0-0--||
C||----------4-4-4-4-4-4-4--|--7-------7-7-7-7--||
G||----------2-2-2-2-2-2-2--|--5-------5-5-5-5--||
C||----------0-0-0-0-0-0-0--|--0-------0-0-0-0--||

Verse 2

    Am                        C
e||--0-0-0-0-0-0-0-0-0-0--|--0-0-0-0-0-0-0-0-0-0--||
c||--0-0-0-0-0-0-0-0-0-0--|--0-0-0-0-0-0-0-0-0-0--||
G||--2-2-2-2-2-2-2-2-2-2--|--0-0-0-0-0-0-0-0-0-0--||
C||--4-4-4-4-4-4-4-4-4-4--|--7-7-7-7-7-7-7-7-7-7--||
G||--2-2-2-2-2-2-2-2-2-2--|--5-5-5-5-5-5-5-5-5-5--||
C||--0-0-0-0-0-0-0-0-0-0--|--0-0-0-0-0-0-0-0-0-0--||
... trying to...I don't ....turning of...of your soul

    Am                        C
e||--0-0-0-0-0-0-0-0-0-0--|--0-0-0-0-0-0-0-0-0-0--||
c||--0-0-0-0-0-0-0-0-0-0--|--0-0-0-0-0-0-0-0-0-0--||
G||--2-2-2-2-2-2-2-2-2-2--|--0-0-0-0-0-0-0-0-0-0--||
C||--4-4-4-4-4-4-4-4-4-4--|--7-7-7-7-7-7-7-7-7-7--||
G||--2-2-2-2-2-2-2-2-2-2--|--5-5-5-5-5-5-5-5-5-5--||
C||--0-0-0-0-0-0-0-0-0-0--|--0-0-0-0-0-0-0-0-0-0--||
.. love could..never vain. .strangers into lovers And enemies to


Pre-Chorus 2
[ Tab from: http://www.guitartabs.cc/tabs/g/goo_goo_dolls/without_you_here_tab.html ]
     Am                        Gsus4add13            Fsus2     FM7           Fsus2     FM7
e||--0-0-0-0-0-0-0-0-0-0--|--0-0-0-0-0-0-0-0-0-0--|--0-0-0-0-0-0-0-0-0-0--|--0-0-0--0-0-0-0-0-0-0--||
c||--0-0-0-0-0-0-0-0-0-0--|--0-0-0-0-0-0-0-0-0-0--|--0-0-0-0-0-0-0-0-0-0--|--0-0-0--0-0-0-0-0-0-0--||
G||--2-2-2-2-2-2-2-2-2-2--|--0-0-0-0-0-0-0-0-0-0--|--0-0-0-0-0-4-4-4-4-4--|--0-0.h4-0-0.h4-0-0.h4--||
C||--4-4-4-4-4-4-4-4-4-4--|--0-0-0-0-0-0-0-0-0-0--|--5-5-5-5-5-5-5-5-5-5--|--5-5-5--5-5-5-5-5-5-5--||
G||--2-2-2-2-2-2-2-2-2-2--|--7-7-7-7-7-7-7-7-7-7--|--5-5-5-5-5-5-5-5-5-5--|--5-5-5--5-5-5-5-5-5-5--||
C||--0-0-0-0-0-0-0-0-0-0--|--7-7-7-7-7-7-7-7-7-7--|--5-5-5-5-5-5-5-5-5-5--|--5-5-5--5-5-5-5-5-5-5--||
brothers ..Just say.... you understand I never .... planned                   (no vocals piece)

Chorus

     C                        Am                      Fsus2     FM7           C
e||--0-0-0-0-0-0-0-0-0-0--|--0-0-0-0-0-0-0-0-0-0--|--0-0-0-0-0-0-0-0-0-0--|--0-0-0-0-0-0-0-0-0-0--||
c||--0-0-0-0-0-0-0-0-0-0--|--0-0-0-0-0-0-0-0-0-0--|--0-0-0-0-0-0-0-0-0-0--|--0-0-0-0-0-0-0-0-0-0--||
G||--0-0-0-0-0-0-0-0-0-0--|--2-2-2-2-2-2-2-2-2-2--|--0-0-0-0-0-4-4-4-4-4--|--0-0-0-0-0-0-0-0-0-0--||
C||--7-7-7-7-7-7-7-7-7-7--|--4-4-4-4-4-4-4-4-4-4--|--5-5-5-5-5-5-5-5-5-5--|--7-7-7-7-7-7-7-7-7-7--||
G||--5-5-5-5-5-5-5-5-5-5--|--2-2-2-2-2-2-2-2-2-2--|--5-5-5-5-5-5-5-5-5-5--|--5-5-5-5-5-5-5-5-5-5--||
C||--0-0-0-0-0-0-0-0-0-0--|--0-0-0-0-0-0-0-0-0-0--|--5-5-5-5-5-5-5-5-5-5--|--0-0-0-0-0-0-0-0-0-0--||
And now, now that.... you're near There's nothing .. without you without you here...

    Am                      Fsus2     FM7           C
e||--0-0-0-0-0-0-0-0-0-0--|--0-0-0-0-0-0-0-0-0-0--|--0-0-0-0-0-0-0-0-0-0--||
c||--0-0-0-0-0-0-0-0-0-0--|--0-0-0-0-0-0-0-0-0-0--|--0-0-0-0-0-0-0-0-0-0--||
G||--2-2-2-2-2-2-2-2-2-2--|--0-0-0-0-0-4-4-4-4-4--|--0-0-0-0-0-0-0-0-0-0--||
C||--4-4-4-4-4-4-4-4-4-4--|--5-5-5-5-5-5-5-5-5-5--|--7-7-7-7-7-7-7-7-7-7--||
G||--2-2-2-2-2-2-2-2-2-2--|--5-5-5-5-5-5-5-5-5-5--|--5-5-5-5-5-5-5-5-5-5--||
C||--0-0-0-0-0-0-0-0-0-0--|--5-5-5-5-5-5-5-5-5-5--|--0-0-0-0-0-0-0-0-0-0--||
wit.here There's nothing .. without you without you here...

( DISTORTION ENTERS!!! )
    Am                     Fsus2     FM7           C
e||--0-0-0-0-0-0-0-0-0-0--|--0-0-0-0-0-0-0-0-0-0--|--0-0-0-0-0-0-0-0-0-0--||
c||--0-0-0-0-0-0-0-0-0-0--|--0-0-0-0-0-0-0-0-0-0--|--0-0-0-0-0-0-0-0-0-0--||
G||--2-2-2-2-2-2-2-2-2-2--|--0-0-0-0-0-4-4-4-4-4--|--0-0-0-0-0-0-0-0-0-0--||
C||--4-4-4-4-4-4-4-4-4-4--|--5-5-5-5-5-5-5-5-5-5--|--7-7-7-7-7-7-7-7-7-7--||
G||--2-2-2-2-2-2-2-2-2-2--|--5-5-5-5-5-5-5-5-5-5--|--5-5-5-5-5-5-5-5-5-5--||
C||--0-0-0-0-0-0-0-0-0-0--|--5-5-5-5-5-5-5-5-5-5--|--0-0-0-0-0-0-0-0-0-0--||
           There's nothing ..without you without you here...


Bridge

     C                       Am(sus4)Am(sus4)Am                     Fsus2     FM7        
  C
e||--0-0-0-0-0-0-0-0-0-0--|--0-0-0-0-0-0-0-0-0-0--|--0-0-0-0-0-0-0-0-0-0--|--0-0-0-0-0-0-0-0-0-0--||
c||--0-0-0-0-0-0-0-0-0-0--|--0-0-2-2-0-0-2-2-0-0--|--0-0-0-0-0-0-0-0-0-0--|--0-0-0-0-0-0-0-0-0-0--||
G||--0-0-0-0-0-0-0-0-0-0--|--2-2-2-2-2-2-2-2-2-2--|--0-0-0-0-0-4-4-4-4-4--|--0-0-0-0-0-0-0-0-0-0--||
C||--7-7-7-7-7-7-7-7-7-7--|--4-4-4-4-4-4-4-4-4-4--|--5-5-5-5-5-5-5-5-5-5--|--7-7-7-7-7-7-7-7-7-7--||
G||--5-5-5-5-5-5-5-5-5-5--|--2-2-2-2-2-2-2-2-2-2--|--5-5-5-5-5-5-5-5-5-5--|--5-5-5-5-5-5-5-5-5-5--||
C||--0-0-0-0-0-0-0-0-0-0--|--0-0-0-0-0-0-0-0-0-0--|--5-5-5-5-5-5-5-5-5-5--|--0-0-0-0-0-0-0-0-0-0--||
My  head ...still believes..seems the..we deceive...changing... everything.. me

( DISTORTION OUT!!! )

Chorus
     C                        Am                      Fsus2     FM7           C
e||--0-0-0-0-0-0-0-0-0-0--|--0-0-0-0-0-0-0-0-0-0--|--0-0-0-0-0-0-0-0-0-0--|--0-0-0-0-0-0-0-0-0-0--||
c||--0-0-0-0-0-0-0-0-0-0--|--0-0-0-0-0-0-0-0-0-0--|--0-0-0-0-0-0-0-0-0-0--|--0-0-0-0-0-0-0-0-0-0--||
G||--0-0-0-0-0-0-0-0-0-0--|--2-2-2-2-2-2-2-2-2-2--|--0-0-0-0-0-4-4-4-4-4--|--0-0-0-0-0-0-0-0-0-0--||
C||--7-7-7-7-7-7-7-7-7-7--|--4-4-4-4-4-4-4-4-4-4--|--5-5-5-5-5-5-5-5-5-5--|--7-7-7-7-7-7-7-7-7-7--||
G||--5-5-5-5-5-5-5-5-5-5--|--2-2-2-2-2-2-2-2-2-2--|--5-5-5-5-5-5-5-5-5-5--|--5-5-5-5-5-5-5-5-5-5--||
C||--0-0-0-0-0-0-0-0-0-0--|--0-0-0-0-0-0-0-0-0-0--|--5-5-5-5-5-5-5-5-5-5--|--0-0-0-0-0-0-0-0-0-0--||
And now, now that.... you're near There's nothing .. without you without you here...

Outro
    C                        Fading
e||-------0-----0-----0-------0---0---0---0--||
c||------0----0-----0-------0---0---0---0----||
G||-----0---5-----5-----5--------------------||
C||----7----7-----7-----7--------------------||
G||---5--------------------------------------||
C||--0---------------------------------------||

NOW THE SONG FOR  DADGce (standard drop D with an open strings on c)


Chords (Change the chods for these ones)
     C    Am   Fsus2  FM7  Gsus4add13 Asus4
e||--0--|--0--|--0--|--0--|----0----|--0--||
c||--0--|--0--|--0--|--0--|----0----|--2--||
G||--0--|--2--|--0--|--4--|----0----|--2--||
D||--5--|--2--|--3--|--3--|----5----|--2--||
A||--3--|--0--|--3--|--3--|----5----|--0--||
D||--x--|-----|--3--|--3--|----5----|-----||

Intro Riff
             Am                        C
e||----------0-0-0-0-0-0-0--|--0-------0-0-0-0--||
c||----5-4---0-0-0-0-0-0-0--|--0--5-4--0-0-0-0--||
G||--5-------2-2-2-2-2-2-2--|--5-------0-0-0-0--||
D||----------2-2-2-2-2-2-2--|--5-------5-5-5-5--||
A||----------0-0-0-0-0-0-0--|--3-------3-3-3-3--||
D||-------------------------|-------------------||

Outro
    C                        Fading
e||-------0-----0-----0-------0---0---0---0--||
c||------0----0-----0-------0---0---0---0----||
G||-----0---5-----5-----5--------------------||
C||----5----5-----5-----5--------------------||
G||---3--------------------------------------||
C||--x---------------------------------------||