Goo Goo Dolls - Up Up Up Chords & Tabs

 

Up Up Up Chords & Tabs

Goo Goo Dolls Chords & Tabs

Version: 1 Type: Tab 0 ratings
1 star 2 stars 3 stars 4 stars 5 stars
comments

Up Up Up Tab

   
Artist: Goo Goo Dolls
Song: Up Up Up
Tabbed By: Gadasher (GCF_14)
Email: feander_14@yahoo.com
Tuning: EADGBE

Intro:
        D           G
E|---------------------------|
B|---------------------------|
G|--7777777777---------------| (2x)
D|--7777777777--5555555555---|
A|--5555555555--5555555555---|
E|--------------3333333333---|

Verse 1:
            D                 G                         D
E|-------------------------------------------------------------------------|
B|-------------------------------------------------------------------------|
G|----------7-------------------------------------------7------------------|
D|----------7-----------------5-------------------------7------------------|
A|----------5-----------------5-------------------------5------------------|
E|----------------------------3--------------------------------------------|
  Are you listenin now? Are feelin that way? Arent you terified..........

      G                 D  G          D                    G      
E|-------------------------------------------------------------------------|
B|-------------------------------------------------------------------------|
G|----------------------7-------------7------------------------------------|
D|----5-----------------7--5----------7--------------------5---------------|
A|----5-----------------5--5----------5--------------------5---------------|
E|----3--------------------3-------------------------------3---------------|
  Of wakin......try again?   Are you happy now? That you shut yourself down.

             D          G                                         Bm
E|-------------------------------------------------------------------------|
B|-------------------------------------------------------------------------|
G|-----------7----------------------------------------------------4--------|
D|-----------7----------5-----------------------------------------4--------|
A|-----------5----------5-----------------------------------------2--------|
E|----------------------3--------------------------------------------------|
  Arent you paralized? By all the the nonsense that gone down.I know youre
[ Tab from: http://www.guitartabs.cc/tabs/g/goo_goo_dolls/up_up_up_tab.html ]
         C                   D
E|-------------------------------------------------------------------------|
B|-------------------------------------------------------------------------|
G|-------5-------------------7---------------------------------------------|
D|-------5-------------------7---------------------------------------------|
A|-------3-------------------5---------------------------------------------|
E|-------------------------------------------------------------------------|
  gonna see this things someday.................

Chorus:

   G               C                    D            G    C         D
E|-------------------------------------------------------------------------|
B|-------------------------------------------------------------------------|
G|-----------------5--------------------7-----------------5---------7------|
D|-5---------------5--------------------7------------5----5---------7------|
A|-5---------------3--------------------5------------5----3---------5------|
E|-3-------------------------------------------------3---------------------|
  Sorry (well/I) spent so much in your time. Now Im......riddle ...ryhme...

          G              C               D              G              C
E|-------------------------------------------------------------------------|
B|-------------------------------------------------------------------------|
G|-----------------------5---------------7-----------------------------5---|
D|--------5--------------5---------------7--------------5--------------5---|
A|--------5--------------3---------------5--------------5--------------3---|
E|--------3---------------------------------------------3------------------|
  And its up, up, up Im headin for this evenin. And its up, up, up Im headin

              A
E|--------------------------------|
B|--------------------------------|
G|------------7-------------------|
D|------------7-------------------|
A|------------5-------------------|
E|--------------------------------|
  for (the clouds/you now).

VERSE 2: DO VERSE 1 CHORDS/TABS
CHORUS: DO CHORUS CHORDS/TABS


...............................THATS ALL....................................
                              PLEASE  RATE
Comments