Goo Goo Dolls - Two Days In February Chords & Tabs

 

Two Days In February Chords & Tabs

Goo Goo Dolls Chords & Tabs

Version: 1 Type: Tab 0 ratings
1 star 2 stars 3 stars 4 stars 5 stars
comments

Two Days In February Tab

   
-------------------------------------------------------------------------------
		TWO DAYS IN FEBRUARY - Goo Goo Dolls
-------------------------------------------------------------------------------

Tabbed by: Liz
Email: zilriffic@lycos.com

Tuning: standard with capo on 2nd fret

I don't do well with just chord names so I decided to tab it out. I really love
this song. I figured out the chords by listening and watching to their
performance on Leno during the release of "What I Learned About Ego, Opinion,
Art, and Commerce." I tried to correlate the lyrics to the chords but it's just
easier if you pick up a copy of "What I Learned About Ego, Opinion, Art, and
Commerce" or even "Hold Me Up" and listen to it and work it out (don't download it!)

Here you go... and remember there the capo on the second fret and the numbers on
the tab are the actual fret numbers where the fingers are placed. Enjoy!
e-mail me with any questions!

Intro:

e|--0-0---0--0-0-0---0--0-0-0---0--0-0-0---|
B|--0-0---0--0-0-0---0--0-0-0---0--0-0-0---|
G|--3-3---8--8-8-8---x--x-x-x---x--x-x-x---|<--- try to mute with pinky finger
D|--4-4---8--8-8-8---8--8-8-8---9--9-9-9---|
A|--4-4---6--6-6-6---8--8-8-8---9--9-9-9---|
E|--0-0---0--0-0-0---6--6-6-6---7--7-7-7---| play 3 times

e|--0-0-0---0\0--0-0-0---0--0--0---|
B|--0-0-0---0\0--0-0-0---0--0--0---|
G|--3-3-3---8\6--6-6-6---4--3--4---|
D|--4-4-4---8\6--6-6-6---4--4--4---|
A|--4-4-4---6\4--4-4-4---0--0--0---|
E|--0-0-0---0\0--0-0-0---0--0--0---|

--------------------------------------------------------------------------------

e|--0-0-0---0--0-0-0---0--0-0-0---0--0-0-0---|
B|--0-0-0---0--0-0-0---0--0-0-0---0--0-0-0---|
G|--3-3-3---8--8-8-8---x--x-x-x---x--x-x-x---|
D|--4-4-4---8--8-8-8---8--8-8-8---9--9-9-9---|
A|--4-4-4---6--6-6-6---8--8-8-8---9--9-9-9---|
E|--0-0-0---0--0-0-0---6--6-6-6---7--7-7-7---| play 3 times

I hung...  Picture...   Wall...   All it is...
I break... Fingers...   Call...   All it is...
I know...  Living...    West...   Think that I confessed

e|--0-0-0---0\0--0-0-0---0--0--0---|
B|--0-0-0---0\0--0-0-0---0--0--0---|
G|--3-3-3---8\6--6-6-6---4--3--4---|
D|--4-4-4---8\6--6-6-6---4--4--4---|
A|--4-4-4---6\4--4-4-4---0--0--0---|
E|--0-0-0---0\0--0-0-0---0--0--0---|

Everything I feel
[ Tab from: http://www.guitartabs.cc/tabs/g/goo_goo_dolls/two_days_in_february_tab.html ]
e|--0-0-0---0--0-0-0---0--0-0-0---0--0-0-0---|
B|--0-0-0---0--0-0-0---0--0-0-0---0--0-0-0---|
G|--3-3-3---8--8-8-8---x--x-x-x---x--x-x-x---|
D|--4-4-4---8--8-8-8---8--8-8-8---9--9-9-9---|
A|--4-4-4---6--6-6-6---8--8-8-8---9--9-9-9---|
E|--0-0-0---0--0-0-0---6--6-6-6---7--7-7-7---| play 2 times

You say... Got no...     Things...  You can't see
Well...    Sorry...      There...   You ain't here with me

e|--0-0-0---0--0-0-0---0---|
B|--0-0-0---0--0-0-0---0---|
G|--3-3-3---6--6-6-6---4---|
D|--4-4-4---6--6-6-6---4---|
A|--4-4-4---4--4-4-4---0---|
E|--0-0-0---0--0-0-0---0---|

And I'm...  fears... Crying no tears....over you

e|--0-0-0---0--0-0-0---0-0-0---0--0-0-0-|--0-0-0--0--0-0-0---0-0-0--0--0-0-0-|
B|--0-0-0---0--0-0-0---0-0-0---0--0-0-0-|--0-0-0--0--0-0-0---0-0-0--0--0-0-0-|
G|--3-3-3---3--3-3-3---3-3-3---3--3-3-3-|--6-6-6--6--6-6-6---4-4-4--4--4-4-4-|
D|--4-4-4---4--4-4-4---4-4-4---4--4-4-4-|--6-6-6--6--6-6-6---4-4-4--4--4-4-4-|
A|--4-4-4---4--4-4-4---4-4-4---4--4-4-4-|--4-4-4--4--4-4-4---0-0-0--0--0-0-0-|
E|--0-0-0---0--0-0-0---0-0-0---0--0-0-0-|--0-0-0--0--0-0-0---0-0-0--0--0-0-0-| play 2 times
                          Cause...         Wrong....         Well it's all right
                          Cause...         Wrong....         Well it's all right

go back to top and repeat pattern with the lyric change.

--------------------------------------------------------------------------------
Break:
Use a E chord form but move it UP to different frets


e|--0-0-0---0-0-0---0-0-0---|
B|--0-0-0---0-0-0---0-0-0---|
G|--3-3-3---5-5-5---8-8-8---|
D|--4-4-4---6-6-6---9-9-9---|
A|--4-4-4---6-6-6---9-9-9---|
E|--0-0-0---0-0-0---0-0-0---|

Use a B chord form but move it DOWN different frets

e|--0--0--0----0-0-0---0-0-0---0-0-0---0-0-0---|
B|--0--0--0----0-0-0---0-0-0---0-0-0---0-0-0---|
G|--0--0--0----0-0-0---0-0-0---0-0-0---0-0-0---|
D|--11-11-11---9-9-9---8-8-8---6-6-6---4-4-4---|
A|--11-11-11---9-9-9---8-8-8---6-6-6---4-4-4---|
E|--9--9--9----7-7-7---6-6-6---4-4-4---0-0-0---|

go back to top and repeat pattern with the lyric change.

end on

e|--0---|
B|--0---|
G|--3---|
D|--4---|
A|--4---|
E|--0---|

===============================================================================
| /  slide up
| \  slide down
| h  hammer-on
| p  pull-off
| ~  vibrato
| +  harmonic
| x  Mute note
===============================================================================
Comments