Goo Goo Dolls - Truth Is A Whisper Chords & Tabs

 

Truth Is A Whisper Chords & Tabs

Goo Goo Dolls Chords & Tabs

Version: 1 Type: Tab 0 ratings
1 star 2 stars 3 stars 4 stars 5 stars
comments

Truth Is A Whisper Tab

   
Song Title: Truth Is A Whisper
Artist: Goo Goo Dolls
Album: Gutterflower
Tabbed by Lance

Not 100% sure about the tuning, but I think it's really close.

Tuning (low to high): D A D G C D

Intro (play 3x)
D------12-10-------------------12-10--------------
C-------------------------------------------------
G----0-------12-12/15-13-12--0-------12-----------
D-------------------------------------------------
A-------------------------------------------------
D-------------------------------------------------

then
D----------0--------0--------0-----------0--------
C----------------------0--------0-----------0-----
G-------0--------0--------------------8-----------
D-------------------------------------------------
A----3--------6-----------------------------------
D-------------------------8--------6--------------

Verse
D----0----0-------0----0--------------------------
C----0----0-------0----0--------------------------
G----0----0-------0----0--------------------------
D----8----8/10----6----6/8------------------------
A----8----8/10----6----6/8------------------------
D----8----8/10----6----6/8------------------------
[ Tab from: http://www.guitartabs.cc/tabs/g/goo_goo_dolls/truth_is_a_whisper_tab.html ]
Pre-Chorus Chords (in order)
D-------------------------------------------------
C-------------------------------------------------
G-------------------------------------------------
D----8\6----8----6----5----8----------------------
A----8\6----8----6----5----8----------------------
D----8\6----8----6----5----8----------------------

Chorus (same as second part of intro or play these chords)
D-------------------------------------------------
C-------------------------------------------------
G-------------------------------------------------
D---10---13----8----6-----------------------------
A---10---13----8----6-----------------------------
D---10---13----8----6-----------------------------

Bridge Chords (in order)
D-------------------------------------------------
C-------------------------------------------------
G-------------------------Second-Guitar-Part------
D----3---11---13---10----12p13r12--10--\8--10-----
A----3---11---13---10-----------------------------
D----3---11---13---10-----------------------------

D-------------------------------------------------
C-------------------------------------------------
G-------------------------------------------------
D----3---11---13---10----6----5---10--------------
A----3---11---13---10----6----5---10--------------
D----3---11---13---10----6----5---10--------------

End On
D--------------------
C----0---------------
G----0----OR---------
D----X---------10----
A----3---------10----
D----X---------10----
Comments