Goo Goo Dolls - Sympathy Chords & Tabs

 

Sympathy Chords & Tabs

Goo Goo Dolls Chords & Tabs

Version: 6 Type: Tab 0 ratings
1 star 2 stars 3 stars 4 stars 5 stars
comments

Sympathy Tab

   
-----------------------------------------------------------------------------
			     SYMPATHY - Goo Goo Dolls
-----------------------------------------------------------------------------
Tabbed By: Jason
Email: jason_butler3@hotmail.com

Tuning: C#,G#,C#,F#,C#,F#

INTRO/CHORUS:
f#|-----------0-0--0-0--0-0-0--0-0-0-0--------------------|
C#|-----------0-0--0-0--0-0-0--0-0-0-0--------------------|
F#|-----------0-0--0-0--0-0-0--0-0-0-0--------------------|
C#|-----------5-5--5-5--5-5-5--0-0-0-0--------------------|
G#|-----3--3--3-3--2-2--5-5-5--5-5-5-5--------------------|
C#|-----0-----0-0--0-0--0-0-0--5-5-5-5--------------------|

VERSE:
f#|---0------------0-------------------0------------------|
C#|---0------------0-------------------0------------------|
F#|---0------------0-------------------0------------------|
C#|---0------------0-------------------5------------------|
G#|---5------------5-------------------3------------------|
C#|---5------------4-------------------0------------------|
	I wish for things that i don't need     
        And what i chase won't set me  free

f#|---0-----------0------------------0--------------0-----|
C#|---0-----------0------------------0--------------0-----|
F#|---0-----------0------------------0--------------0-----|
C#|---0-----------0------------------0--------------5-----|
G#|---5-----------5------------------2--------------3-----|
C#|---5-----------4------------------2--------------0-----|
        And I get scared but i'm not crawling on my knees

[ Tab from: http://www.guitartabs.cc/tabs/g/goo_goo_dolls/sympathy_tab_ver_6.html ]
PRE-CHORUS:
f#|---0-------------0-------------------------------------|
C#|---0-------------0-------------------------------------|
F#|---0-------------0-------------------------------------|
C#|---0-------------5-------------------------------------|
G#|---2-------------3-------------------------------------|
C#|---2-------------0-------------------------------------|
  Oh, yeah... It's  easy to forget 
  And yeah...  You  choke on the regrets
  And yeah, who the hell did i...

f#|---------0---------------------------------------------|
C#|---------0---------------------------------------------|
F#|---------0---------------------------------------------|
C#|---------7-----7/9-9-9-9--7-0--------------------------|
G#|---------5--------------------7-0----------------------|
C#|---------0---------------------------------------------|
 ...think i was


BRIDGE:
f#|--0--------------0----------------0-----------------0--|
C#|--0--------------0----------------0-----------------0--|
F#|--0--------------0----------------0-----------------0--|
C#|--0--------------0----------------0-----------------0--|
G#|--2--------------5----------------5-----------------0--|
C#|--2--------------4----------------5-----------------0--|
       And I wasn't all the things i tried to make believe i was  

f#|--0--------------0----------------0-----------------0--|
C#|--0--------------0----------------0-----------------0--|
F#|--0--------------0----------------0-----------------0--|
C#|--0--------------0----------------0-----------------2--|
G#|--2--------------5----------------5-----------------2--|
C#|--2--------------4----------------5-----------------0--|
         I wouldn't be the one to    kneel before the dreams i wanted

"All the talking, all the lies, were all the empty things..." is the PRECHORUS

=============================================================================
Comments