Goo Goo Dolls - Sympathy Chords & Tabs

 

Goo Goo Dolls Chords & Tabs

Version: 1 Type: Tab 0 ratings
1 star 2 stars 3 stars 4 stars 5 stars
comments

Sympathy Tab

Sympathy

Standard Tunning   This tab was good but i made some changes.. enjoy
Capo on the 1st fret

[-----3--3--3--3-3-3-3-
[-----3--3--3--3-3-3-3-
[-----0--0--0--0-0-0-0-
[-----0--0--0--0-0-0-0-
[-0-2-3--2--0--0-0-0-0-
[--------0--x--3-3-3-3-

Stranger than your sympathy
And this is my apology
I killed myself from the inside out
And all my fears have pushed you out

[-----3-3-3-3--3-3-3-3--3-3-3-3-3-
[-----3-3-3-3--3-3-3-3--3-3-3-3-3-
[-----0-0-3-3--2-2-2-2--0-0-0-0-0-
[-----0-0-0-0--0-0-0-0--2-2-2-2-2-
[-----2-2-2-2--x-x-x-x--3-3-3-3-3-
[-----3-3-3-3--x-x-x-x--x-x-x-x-x-

(listen to the song to know how
many times to strum this.)

And I wished for things that I don't need
(All I wanted)
And what I chased won't set me free
(All I wanted)
And I get scared but I'm not crawlin' on my knees

[ Tab from: http://www.guitartabs.cc/tabs/g/goo_goo_dolls/sympathy_tab.html ]
[3-3-3-3--3-3-3-3--3-3-3-3-3-|-3-3-3-3-3-|-3--3--3------------------
[3-3-3-3--3-3-3-3--3-3-3-3-3-|-3-3-3-3-3-|-3--3--3-0-0-0-0----------
[0-0-3-3--2-2-2-2--0-0-0-0-0-|-0-0-0-0-0-|-0--0--2---------2-0------
[0-0-0-0--0-0-0-0--2-2-2-2-2-|-2-2-0-0-0-|-0--2--0-------------0----
[2-2-2-2--x-x-x-x--3-3-3-3-3-|-2-2-2-2-2-|-2--3--x------------------
[3-3-3-3--x-x-x-x--x-x-x-x-x-|-0-0-3-3-3-|-3--x--x------------------

Oh, yeah
Everything's all wrong, yeah
Everything's all wrong, yeah
Where the hell did I think I was?

(verse part)

And stranger than your sympathy
Take these things, so I don't feel
I'm killing myself from the inside out
And now my head's been filled with doubt

(chorus)

We're taught to lead the life you choose
(All I wanted)
You know your love's run out on you
(All I wanted)
And you can't see when all your dreams aren't coming true

(chorus part)

Oh, yeah
It's easy to forget, yeah
When you choke on the regrets, yeah
Who the hell did I think I was?

(verse part)

And stranger than your sympathy
And all these thoughts you stole from me
And I'm not sure where I belong
And no where's home and no more wrong

[-----3-3-3-3--
[-----3-3-3-3--
[-----0-2-0-3-- (these are picking parts)
[-----2---2-0--
[-----2---3-2--
[-----0-----3--

And I was in love with things I tried to make you believe I was
And I wouldn't be the one to kneel before the dreams I wanted
And all the dark and all the lies were all the empty things disguised as me

(return to the verse part)

Mmm, yeah
Stranger than your sympathy
Stranger than your sympathy
Mmm hmmm mmm

end on the 'G' cord.
Comments