Goo Goo Dolls - Sunshine Of Your Love Chords & Tabs

 

Sunshine Of Your Love Chords & Tabs

Goo Goo Dolls Chords & Tabs

Version: 1 Type: Tab 0 ratings
1 star 2 stars 3 stars 4 stars 5 stars
comments

Sunshine Of Your Love Tab

   
Intro:

(r.f. 1)

  E5 E5 D5 E5  B5 Bb5 A5   E5 

e ------------------------------------
B ------------------------------------
G -9-9--7--9--------------------------
D -9-9--7--9---9--8---7---------------
A -7-7--5--7---9--8---7---------------
E -------------7--6---5-----0--3b--r0-

(play four times)Verse:

(r.f. 1)

It's getting near dawn

(r.f. 1)

The lights close their tired eyes

(r.f. 1)

I'll soon be with you, my love

(r.f. 1)

To give you my dawn surprisePrechorus:

(r.f. 2)

  A5 A5 G5 A5  E5 Eb5 D5   A5 

B ------------------------------------
G 10-10-8--10-------------------------
D -9-9--7--9---9--8---7---------------
D -7-7--5--7---9--8---7---------------
A -------------7--6---5-----0--3b--r0-
E ------------------------------------

I'll stay with you, darling, soon

(r.f. 2)

I'll stay with you till the seas are dried up(r.f. 1, two times)Chorus:
[ Tab from: http://www.guitartabs.cc/tabs/g/goo_goo_dolls/sunshine_of_your_love_tab.html ]
B5        D5      A5

I've been waiting so long

B5    D5        A5

To be where I'm going

B5     D5          A5   B5

In the sunshine of your love(r.f. 1, two times)(verse)

Be with me, my love

The light shining through on you

Be with me, my love

It's the morning and just we two(prechorus)

I'll stay with you, darling, soon

I'll stay with you till the seas are dried up(r.f. 1, two times)(chorus)

I've been waiting so long

To be where I'm going

In the sunshine of your loveSolo:

(r.f. 1, four times)

(r.f. 2, two times)

(r.f. 1, two times)

(play chorus riff)(r.f. 1, two times)(verse)

Be with me, my love

The light shining through on you

Be with me, my love

It's the morning and just we two(prechorus)

I'll stay with you, darling, soon

Oh, till the seas are dried up(r.f. 1, two times)(chorus)

I've been waiting so long

To be where I'm going

In the sunshine of your loveB5

In the sunshine of your love

In the sunshine of your love *laughs*

N/C

Let me do it again!
Comments