Goo Goo Dolls - Smash Chords & Tabs

 

Smash Chords & Tabs

Goo Goo Dolls Chords & Tabs

Version: 1 Type: Tab 0 ratings
1 star 2 stars 3 stars 4 stars 5 stars
comments

Smash Tab

   
Artist: Goo Goo Dolls
Song: Smash
Tabbed By: Gadasher (GCF_14)
Email: feander_14@yahoo.com
Tuning: EADGBE

Intro:

       E     C#m     A      B
E|--------------------------------|
B|--------------------------------|
G|--99999999-6666-----------------|
D|--99999999-6666-77777777-9999---|
A|--77777777-4444-77777777-9999---|
E|----------------55555555-7777---|

Verse 1:

   E    C#m                      A                 B     E   C#m
E|-------------------------------------------------------------------------|
B|-------------------------------------------------------------------------|
G|-9-----6-----------------------------------------------9----6------------|
D|-9-----6-----------------------7-----------------9-----9----6------------|
A|-7-----4-----------------------7-----------------9-----7----4------------|
E|-------------------------------5-----------------7-----------------------|
  Hey, what are tou thinkin. I tried to read your face. Say, say what your 

                 A                B
E|-------------------------------------------------------------------------|
B|-------------------------------------------------------------------------|
G|-------------------------------------------------------------------------|
D|---------------7----------------9----------------------------------------|
A|---------------7----------------9----------------------------------------|
E|---------------5----------------7----------------------------------------|
  thinkin. Dont carry around the pain....

Chorus:
[ Tab from: http://www.guitartabs.cc/tabs/g/goo_goo_dolls/smash_tab.html ]
    A              B    E             A                         B
E|-------------------------------------------------------------------------|
B|-------------------------------------------------------------------------|
G|----------------------9--------------------------------------------------|
D|--7--------------9----9-------------7-------------------------9----------|
A|--7--------------9----7-------------7-------------------------9----------|
E|--5--------------7------------------5-------------------------7----------|
  Everytime I see you (pickin at yourself/torturin yourself) I love, I

                        E C#m A B
E|------------------------------------------------|
B|------------------------------------------------|
G|-----------------------9-6----------------------|
D|-----------------------9-6-7-9------------------|
A|-----------------------7-4-7-9------------------|
E|---------------------------5-7------------------|
  love when things work out...................

Verse 2: (DO VERSE 1 CHORDS/TABS)

Smash, Iheard you cryin
Seven times this year
Crash, now youre smillin
Holdin back your tears

Bridge:

         A                               E        A
E|-------------------------------------------------------------------------|
B|-------------------------------------------------------------------------|
G|---------------------------------------9---------------------------------|
D|-------7-------------------------------9--------7------------------------|
A|-------7-------------------------------7--------7------------------------|
E|-------5----------------------------------------5------------------------|
  And I see it from another place right now. Im comin home before I hit the

    B                                        E C#m A B
E|---------------------------------------------------------------|
B|---------------------------------------------------------------|
G|--------------------------------------------9-6----------------|
D|--9-----------------------------------------9-6-7-9------------|
A|--9-----------------------------------------7-4-7-9------------|
E|--7---------------------------------------------5-7------------|
  ground. Right back were I want to be right now.............

Smash.........And I feel it (2x) DO INTRO CHORDS/TABS




.............................THATS ALL......................................
.........................PLEASE RATE THIS...................................
Comments