Goo Goo Dolls - Slide Chords & Tabs

 

Slide Chords & Tabs

Goo Goo Dolls Chords & Tabs

Version: 6 Type: Tab 0 ratings
1 star 2 stars 3 stars 4 stars 5 stars
comments

Slide Tab

   
------------------------------------------------------------------------
			     Slide - Goo Goo Dolls
------------------------------------------------------------------------
Tabbed by: Dan Welter
Email: dtw082287@msn.com

Tuning: Standard with capo on first fret or raise all the strings one half step from standard tuning.

Intro: 2 Times
e|-----------------------------------|
B|--------3------3--------3----3---3-|
G|------0---0--2---0----0---0-0------|
D|----2------0------0----------------|
A|--------------------3--------------|
E|---------------------------3---2---|

E			D
Could you whisper in my ear
		     C	
The things you wanna feel

I'll give you anything

To feel it coming
E		       D	
Do you wake up on your own
		   C
I wonder where you are, You live with all your faults
e|-----------------0-------|
B|---------3-------3-------|
G|-------0----0----0-------|
D|---0h2--------2--2-------|
A|-------------------------|
E|-------------------------|
I wanna wake up where you are
e|-----------------0-------|
B|---------3-------3-------|
G|-------0----0----0-------|
D|---0h2--------2--2-------|
A|-------------------------|
E|-------------------------|

I won't say anything at all
D		 C     G     C     G     C     G     D
So why don't you slide
                        C     G     C     G     C     G     D
Yeah we're gonna let it slide

E			       D 
Don't you love the life you've killed
                     C
The priest is on the phone

Your father hit the wall, Your ma disowned you
E			D
Don't suppose I'll ever know
		      C
What it means to be a man

Something I can't change, I'll live around it
e|-------|
B|--3----|
G|--0----|
D|--2----|
A|-------|
E|-------|
I wanna wake up where you are
e|-----------------0-------|
B|---------3-------3-------|
G|-------0----0----0-------|
D|---0h2--------2--2-------|
A|-------------------------|
E|-------------------------|
I won't say anything at all
[ Tab from: http://www.guitartabs.cc/tabs/g/goo_goo_dolls/slide_tab_ver_6.html ]
D		 C     G     C     G     C     G     D
So why don't you slide
     C          G              C               G
Yeah I'll do anything you ever dream to be complete
       C         G            D
Little pieces of nothing that fall
   E                   D
Oh May, Put your arms around me
         C
What you feel is what you are and what you are is beautiful 
   E                     D                 C
Oh May, do you wanna get married, or run away

C     G     C     G     C     G     D

     C          G              C               G
Yeah I'll do anything you ever dream to be complete
       C         G            D
Little pieces of nothing that fall
   E                   D
Oh May, Put your arms around me
         C
What you feel is what you are and what you are is beautiful 
   E                     D                 C
Oh May, do you wanna get married, or run away

                            

e|------------------------------------------------------------3-------|
B|-------3------3--------3----3---3--------3------3-------3---3-------|
G|-----0---0--2---0----0---0-0----------0---0--2---0----0---0-0-------|
D|---2------0------0------------------2------0------0---------0-------|
A|-------------------3------3---2---------------------3-------0-------|
E|------------------------------------------------------------3-------|



Em
e|--3----|
B|--3----|
G|-------|
D|--2----|
A|--2----|
E|-------|

D
e|--2----|
B|--3----|
G|--2----|
D|-------|
A|-------|
E|-------|

C 
e|--3----|
B|--3----|
G|-------|
D|--2----|
A|--3----|
E|-------|

G
e|--3----|
B|--3----|
G|-------|
D|-------|
A|--2----|
E|--3----|

e|-----------------0-------|
B|---------3-------3-------|
G|-------0----0----0-------|
D|---0h2--------2--2-------|
A|-------------------------|
E|-------------------------|


| /  slide up
| \  slide down
| h  hammer-on
| p  pull-off
| ~  vibrato
| +  harmonic
| x  Mute note
========================================================================
Comments