Goo Goo Dolls - Slide Chords & Tabs

 

Slide Chords & Tabs

Goo Goo Dolls Chords & Tabs

Version: 5 Type: Tab 0 ratings
1 star 2 stars 3 stars 4 stars 5 stars
comments

Slide Tab

   
Goo goo dolls - slide

This is all done in standard tuning

e-|-----------------------------|
B-|-----------------------------|
G-|------8-----8---------8------| 
D-|----------8---8-----6--------|  x2
A-|-8-11---6-------6-4----------|
E-|-------------------------4-3-|

(all these power chords are done on the A string except for G#)

F5                       D#5                       C#5
Could you whisper in my ear The things you wanna feel 
                                          F5                      D#5
I'll give you anything To feel it comin'. Do you wake up on your own
                      C#5
And wonder where you are You live with all your faults....

e-|---------------|
B-|---------------|
G-|-6s8---8-----6-|
D-|-6s8-8---8---6-|
A-|-4s6-------6-4-|
E-|---------------|

I wanna wake up where you are...

e-|---------------|
B-|---------------|
G-|-6s8---8-----6-|
D-|-6s8-8---8---6-|
A-|-4s6-------6-4-|
E-|---------------|

I won't say anything at all..
                     C#5 G#5 C#5 G#5 C#5 G#5 D#5
So why don't you slide
D#5                        C#5 G#5 C#5 G#5 C#5 G#5 D#5
Yeah we're gonna let it slide
F5                              D#5                        C#5
Don't you love the life you killed The priest is on the phone
                                              F5
Your father hit the wall Your mom disowned you
F5                        D#5                        C#5
Don't suppose I'll ever know What it means to be a man

If there's something I can't change I'll live around it...

e-|---------------|
B-|---------------|
G-|-6s8---8-----6-|
D-|-6s8-8---8---6-|
A-|-4s6-------6-4-|
E-|---------------|

I wanna wake up where you are...

e-|---------------|
B-|---------------|
G-|-6s8---8-----6-|
D-|-6s8-8---8---6-|
A-|-4s6-------6-4-|
E-|---------------|
[ Tab from: http://www.guitartabs.cc/tabs/g/goo_goo_dolls/slide_tab_ver_5.html ]
I won't say anything at all...
                     C#5 G#5 C#5 G#5 C#5 G#5 D#5
So why don't you slide
C#5            G#5            C#5           G#5
And I'll do anything you ever Dreamed to be complete
C#5                  G#5           D#5
Little pieces of the nothing that fall
F5                    D#5
Oh May, put your arms around me 
         C#5
What you feel is what you areAnd what you are is beautiful
   F5                    D#5             C#5
Oh May, do you wanna get married Or run away

C#5 G#5 C#5 G#5 C#5 G#5 D#5

C#5            G#5            C#5           G#5
And I'll do anything you ever Dreamed to be complete
C#5                  G#5           D#5
Little pieces of the nothing that fall
F5                    D#5
Oh May, put your arms around me 
         C#5
What you feel is what you areAnd what you are is beautiful
   F5                    D#5             C#5
Oh May, do you wanna get married Or run away

e-|---------------|
B-|---------------|
G-|-6s8---8-----6-|
D-|-6s8-8---8---6-|
A-|-4s6-------6-4-|
E-|---------------|


I wanna wake up where you are...

e-|---------------|
B-|---------------|
G-|-6s8---8-----6-|
D-|-6s8-8---8---6-|
A-|-4s6-------6-4-|
E-|---------------|

Oh i won't say anything.....

C#5            G#5            C#5           G#5
And I'll do anything you ever Dreamed to be complete
C#5                  G#5           D#5
Little pieces of the nothing that fall
C#5            G#5            C#5           G#5
And I'll do anything you ever Dreamed to be complete
C#5                  G#5           D#5
Little pieces of the nothing that fall
   C#5                G#5           C#5       D#5  
Oh May, why dont you slide in to my room just slide into my room

and we'll run away run away

e-|-----------------------------|
B-|-----------------------------|
G-|------8-----8---------8------| 
D-|----------8---8-----6--------|
A-|-8-11---6-------6-4----------|
E-|-------------------------4-3-|

e-|----------------------------|
B-|----------------------------|
G-|------8-----8---------8-----| 
D-|----------8---8-----6-------|
A-|-8-11---6-------6-4---------|
E-|-------------------------4--|

that's it.
Comments