Goo Goo Dolls - No Ones Listening Chords & Tabs

 

No Ones Listening Chords & Tabs

Goo Goo Dolls Chords & Tabs

Version: 1 Type: Tab 0 ratings
1 star 2 stars 3 stars 4 stars 5 stars
comments

No Ones Listening Tab

   
This song is very easy, infact I just heard it for the first time 
about 15 minutes ago, and it's mainly just 2 sets of tabs, 
played over and over.  They really don't play a chorus, but i'm 
calling it that anyway.

The easiest way to play the song with this tab, is to play the tab, 
and after you have repeated it the required amount of times go 
directly to the next set, and once your at the bottom, go back to 
"Verse 1st part" 

Intro - Repeat 4 Times

E|-----3-----3------||
B|-------------3----||
G|---0-----0-----0--||
D|------------------||
A|-------3----------||
E|-3----------------||
   G     C

Verse 1st part - Repeat 8 times
[ Tab from: http://www.guitartabs.cc/tabs/g/goo_goo_dolls/no_ones_listening_tab.html ]
E|-----3-----3------||
B|-------------3----||
G|---0-----0-----0--||
D|------------------||
A|-------3----------||
E|-3----------------||
   G     C

Verse 2nd part (Chorus) - Repeat 3 times

E|----3-----3---------3-----3------||
B|-------------3---------------3---||
G|--2-----0-----0---0-----0-----0--||
D|-0-------------------------------||
A|-------2---------3---------------||
E|-----------------------3---------||
   D     Em        C     G

Verse 3rd part (Chorus) - Repeat 4 times

E|-----3-----3------||
B|-------------3----||
G|---0-----0-----0--||
D|------------------||
A|-------3----------||
E|-3----------------||
   G     C

Go back to "Verse 1st part"

They play this (G) at the very end and let it ring out.
E|-3------||
B|-3------||
G|-0------||
D|-0------||
A|-2------||
E|-3------|| 
   G
Comments