Goo Goo Dolls - Name Chords & Tabs

 

Name Chords & Tabs

Goo Goo Dolls Chords & Tabs

Version: 5 Type: Tab 0 ratings
1 star 2 stars 3 stars 4 stars 5 stars
comments

Name Tab

Drop the low E string to D.
Raise the G string to A.
Drop the B string to A.

"/" means: slide up

Verse:

-------0-----0------0-----0------0-----0------0------0------
---------0------------0------------0--------0------0--------
-----0-----0------0-----0------0-----0----------------------
------------------------------------------------------------
-----------------------------5------------------------------
---7------------6-------------------------4------2------0---

---0---0----0---0---0---0---0---0---0---0---0---0---0---0---0---0---0---
---0--2/4--4/7--7---7---7---7---7---2---4---4---4---2---0---2---4---2---
---0---0----0---0---0---0---0---0---0---0---0---0---0---0---0---0---0---
---0---0----0---0---0---0---0---0---0---0---0---0---0---0---0---0---0---
---0---0----0---0---0---0---0---0---0---0---0---0---0---0---0---0---0---
------------------------------------------------------------------------

Chorus 1:

Now we're ....
---0--4--5------------0--0--2-------0---------------------
---0--0--0------------0--0--0-------0---------------------
---0--0--0------------0--0--0-------0---------------------
---4--4--4------------2--2--2-------0---------------------
---4--4--4------------2--2--2-------0---------------------
---4--4--4------------2--2--2-------0---------------------

We don't ........
---0--4--5------------0--0--2-------0--5--7--9--7---------
---0--0--0------------0--0--0-------0--0--0--0--0---------
---0--0--0------------0--0--0-------0--0--0--0--0---------
---4--4--4------------2--2--2-------0--0--0--0--0---------
---4--4--4------------2--2--2-------0--0--0--0--0---------
---4--4--4------------2--2--2-------0--0--0--0--0---------

You could ........
---0--4--5------------0--0--2-------0---------------------
---0--0--0------------0--0--0-------0---------------------
---0--0--0------------0--0--0-------0---------------------
---4--4--4------------2--2--2-------0---------------------
---4--4--4------------2--2--2-------0---------------------
---4--4--4------------2--2--2-------0---------------------

And I won't .......
----0--4--5------0--0--2-----0---
----0--0--0------0--0--0-----0---
----0--0--0------0--0--0-----0---
----4--4--4------2--2--2-----0---
----4--4--4------2--2--2-----0---
----4--4--4------2--2--2-----0---

Repeat Verse

Chorus 2:

You grew ......
----0--4--5---------0--0--2---------------0-----------------
----0--0--0---------0--0--0---------------0-----------------
----0--0--0---------0--0--0---------------0-----------------
----4--4--4---------2--2--2---------------0-----------------
----4--4--4---------2--2--2---------------0-----------------
----4--4--4---------2--2--2---------------0-----------------
[ Tab from: http://www.guitartabs.cc/tabs/g/goo_goo_dolls/name_tab_ver_5.html ]
And re-runs ......
----0--4--5-------0--0--2-------0--5--7--5---
----0--0--0-------0--0--0-------0--0--0--0---
----0--0--0-------0--0--0-------0--0--0--0---
----4--4--4-------2--2--2-------0--0--0--0---
----4--4--4-------2--2--2-------0--0--0--0---
----4--4--4-------2--2--2-------0--0--0--0---

A tired song ......
---0--4--5----------0--0--2------0----------
---0--0--0----------0--0--0------0----------
---0--0--0----------0--0--0------0----------
---4--4--4----------2--2--2------0----------
---4--4--4----------2--2--2------0----------
---4--4--4----------2--2--2------0----------

And I won't ....
----0--4--5------0--0--2-----0---
----0--0--0------0--0--0-----0---
----0--0--0------0--0--0-----0---
----4--4--4------2--2--2-----0---
----4--4--4------2--2--2-----0---
----4--4--4------2--2--2-----0---

Repeat Verse pattern twice

Solo: (Strum all but the low E string while playing)
------------------------------------0-0-0-0-0-0-0-0-------------------
--0-2-4-4-2-0-0-2-4-2-0-2-4-5-4-4-5-----------------4-2-3-2-0-0-0-0-0-
----------------------------------------------------------------------
----------------------------------------------------------------------
----------------------------------------------------------------------
----------------------------------------------------------------------

--------------------2-2-2-0-0-0-0-5-5-5-4-4-5-5-4-4-4-5-5-4-4-4-5-7-9-
--2-0-0-2-4-5-4-2-0---------------------------------------------------
----------------------------------------------------------------------
----------------------------------------------------------------------
----------------------------------------------------------------------
----------------------------------------------------------------------

-10-10-9-9-9-9-9-9-10-9-7-5-12-12-12-12-12-12-12-12-10-10-9-7-5-4-2-2-
----------------------------------------------------------------------
----------------------------------------------------------------------
----------------------------------------------------------------------
----------------------------------------------------------------------
----------------------------------------------------------------------

--0-5-7-10-9-7-2-2-2-2-2-2-2-2-2-2-2-2-
---------------------------------------
---------------------------------------
---------------------------------------
---------------------------------------
---------------------------------------

Repeat Verse pattern once, and then repeat just the first half of it =
(the picking part)

Ending:
---0---0---0---0---0---0---0---
---2---4---4---4---2---0---0---
---0---0---0---0---0---0---0---
---0---0---0---0---0---0---0---
---0---0---0---0---0---0---0---
-------------------------------
Comments