Goo Goo Dolls - Name Chords & Tabs

 

Name Chords & Tabs

Goo Goo Dolls Chords & Tabs

Version: 2 Type: Tab 4 ratings
1 star 2 stars 3 stars 4 stars 5 stars
comments

Name Tab

   
Artist: Goo Goo Dolls
Song: "Name"
Album: A Boy Named Goo
By: Conrad, conradiuss@yahoo.com

I don't usually like to change my tuning for just one song so I wrote this version which 
uses standard tuning.  It sounds pretty good and plays easily.  Write me at conradiuss@yahoo.com 
and tell me what you think.
[ Tab from: http://www.guitartabs.cc/tabs/g/goo_goo_dolls/name_tab_ver_2.html ]
e-----0-----------0-----------0-----------0-----0---0---0---0-----0---0---0---0---0---0--
B---------------------------------------------------2---4---9-----2---4---6---4---6---2--
G---2---2---2---2---2---2---2---2---2---2-----2-----0---0---0-----0---0---0---0---0---0--
D-------------------------0-------0-----------------0---0---0-----0---0---0---0---0---0--
A-0-------0------------------------------------------------------------------------------
E-------------4-------4---------------2-----0--------------------------------------------
						   4x  4x  6x    4x  4x
chorus

e---0-----0-----0----------------------
B---2-----0-----3----------------------
G---2-----2-----2----------------------
D---4-----2-----0----------------------
A---4-----2-----0----------------------
E---2-----0-----x----------------------

  F#m7  Esus4  Dsus2

Comments