Goo Goo Dolls - Name Chords & Tabs

 

Name Chords & Tabs

Goo Goo Dolls Chords & Tabs

Version: 1 Type: Tab 1 rating
1 star 2 stars 3 stars 4 stars 5 stars
comments

Name Tab

   
#----------------------------------PLEASE NOTE---------------------------------#
#This file is the author's own work and represents their interpretation of the #
#song. You may only use this file for private study, scholarship, or research. #
#------------------------------------------------------------------------------##

Goo Goo Dolls - "Name"
By: Michael Slabicki - Rzez7@yahoo.com

Ok this song is an old song, but it never wears out. This is how I play it,
the 100% correct way that John plays it. How i know this is simple,
I not only know that it sounds exactly like the CD recording, I have
studied John's finger movements closely in his concerts.
 

Tuning: (low to high)
 D
 A
 E
 A
 E
 E
    \ = slide down

-----0---------0---------0----------0------0-------                       
-------0---------0---------0------0-------0--------
---0-----0---0-----0---0-----0---------------------
---------------------0-----------------------------
-0------------------5------------------------------
-7---------6--------------------4------2------0----


[ Tab from: http://www.guitartabs.cc/tabs/g/goo_goo_dolls/name_tab.html ]
-0---0---0-----0-0-0-0-0---0---0---0---0---0----0--0---0--
-0---0---0-----0-0-0-0-0---0---0---0---0---0----0--0---0--
-0---0---0-----0-0-0-0-0---0---0---0---0---0----0--0---0--
-7-9-9\12-12-12-12-12-7-9-9-9-7-0-7-7-9-7--0----0--0---0--
-0---0---0-----0-0-0-0-0---0---0---0---0---0----0--0---0--
---------------------------------------------------------


chorus - (repeat same through second verse)

Now we're grown up orphans, that never knew their names
--4-5--------------0----------------0----
---0---------------0----------------0----
---0---------------0----------------0----
---4---------------2----------------0----
---4---------------2----------------0----
---4---------------2----------------0----

 

We don't belong to no one, that's a shame
-4-5---------------0----------------0----
---0---------------0----------------0----
---0---------------0----------------0----
---4---------------2----------------0----
---4---------------2----------------0----
---4---------------2----------------0----



Solo: alterable to your own order, this is mine. (play these 2 lines seperate)

-------------------------------12-9-7-5-4-2-4-2-0-------------
--------------------------------------------------------------
--------------------------------------------------------------
---------9-9-9-7-5-5-5-4-4-4-4-4-4----------------------------
--------------------------------------------------------------
--------------------------------------------------------------


Ending

 
-0---0---0---0---0---0---0---0--
-0---0---0---0---0---0---0---0--
-0---0---0---0---0---0---0---0--
-7--9-9-9--7-0---0---0---0---0--
-0---0---0---0---0---0---0---0--
-----------------7--------------

And thats it! Please ask me fore permission by e-mail if you want to post this somewhere else
Thank You and Enjoy!
Comments