Goo Goo Dolls - Name Acoustic Chords & Tabs

 

Name Acoustic Chords & Tabs

Goo Goo Dolls Chords & Tabs

Version: 1 Type: Tab 0 ratings
1 star 2 stars 3 stars 4 stars 5 stars
comments

Name Acoustic Tab

Song title: Name (acoustic version)
Artist: Goo Goo Dolls
tabbed by: Shinta<>


Its made on acoustic, and i think it will not sound right on electric, but
anyways, the strumming is not right, but you'll probably want to modify the
strumming to suit the way you like to play it anyways. These tabs aren't right
but it sounds like it! Enjoy playing...


Standard Tuning...

 intro...
|-------0-----0-------0-----0------0-----0--------0------0-----|
|---------0-------------0------------0-------------------------|
|-----2-----0-------2-----0------2-----0-------2-------2-------|
|------------------------------0-------------------------------|
|--0-----------------------------------------------------------|
|----------------4---------------------------3-------2-----0---|
 ...
|----0---0---0---0--0000000----0---0---0--000---0-0-0---0----|
|----0---0---0---0--0000000----0---0---0--000---0-0-0---0----|
|----2-\-4-\-6-\-9--9999999-/--2-\-4-\-6--666-/-4-6-4-/-2----|
|----0---0---0---0--0000000----0---0---0--000---0-0-0---0----|
|------------------------------------------------------------|
|------------------------------------------------------------|

 verse1...
|-------0-----0-------0-----0------0-----0--------0------0-----|
|---------0-------------0------------0-------------------------|
|-----2-----0-------2-----0------2-----0-------2-------2-------|
|------------------------------0-------------------------------|
|--0-----------------------------------------------------------|
|----------------4---------------------------3-------2-----0---|
 ...
|----0---0---0---0--0000000----0---0---0--000---0-0-0---0----|
|----0---0---0---0--0000000----0---0---0--000---0-0-0---0----|
|----2-\-4-\-6-\-9--9999999-/--2-\-4-\-6--666-/-4-6-4-/-2----|
|----0---0---0---0--0000000----0---0---0--000---0-0-0---0----|
|------------------------------------------------------------|
|------------------------------------------------------------|


 chorus...
|--222222---000000---2222222222----|
|--222222---000000---3333333333----|
|--222222---111111---2222222222----| <4x>
|--444444---222222---0000000000----|
|--444444---222222---0000000000----|
|--222222---000000---0000000000----|

|Repeat Verse pattern twice|
|then proceed to verse2...|
[ Tab from: http://www.guitartabs.cc/tabs/g/goo_goo_dolls/name_acoustic_tab.html ]
 verse2...
|-------0-----0-------0-----0------0-----0--------0------0-----|
|---------0-------------0------------0-------------------------|
|-----2-----0-------2-----0------2-----0-------2-------2-------|
|------------------------------0-------------------------------|
|--0-----------------------------------------------------------|
|----------------4---------------------------3-------2-----0---|
 ...
|----0---0---0---0--0000000----0---0---0--000---0-0-0---0----|
|----0---0---0---0--0000000----0---0---0--000---0-0-0---0----|
|----2-\-4-\-6-\-9--9999999-/--2-\-4-\-6--666-/-4-6-4-/-2----|
|----0---0---0---0--0000000----0---0---0--000---0-0-0---0----|
|------------------------------------------------------------|
|------------------------------------------------------------|

 |Repeat chorus|
 |Repeat Verse pattern twice|
 |solo tab not yet,, but i do the chorus pattern|
 |then proceed to outro...|


 outro...
 I think about...
|-------0-----0-------0-----0------0-----0--------0------0-----|
|---------0-------------0------------0-------------------------|
|-----2-----0-------2-----0------2-----0-------2-------2-------|
|------------------------------0-------------------------------|
|--0-----------------------------------------------------------|
|----------------4---------------------------3-------2-----0---|
 ...
|----0---0---0---0--0000000----0---0---0--000---0-0-0---0----|
|----0---0---0---0--0000000----0---0---0--000---0-0-0---0----|
|----2-\-4-\-6-\-9--9999999-/--2-\-4-\-6--666-/-4-6-4-/-2----|
|----0---0---0---0--0000000----0---0---0--000---0-0-0---0----|
|------------------------------------------------------------|
 ...If it's lonely
|-------0-----0-------0-----0------0-----0--------0------0-----|
|---------0-------------0------------0-------------------------|
|-----2-----0-------2-----0------2-----0-------2-------2-------|
|------------------------------0-------------------------------|
|--0-----------------------------------------------------------|
|----------------4---------------------------3-------2-----0---|
 ...
|---0---0---0-00---0---0------|
|---0---0---0-00---0---0------|
|---2-\-4-\-6-66-/-4-/-2------|
|---0---0---0-00---0---0------|
|-----------------------------|
|-----------------------------|


info:any comment,suggestions,death-threats,bombthreats,reactions e-mail me at
     jamir@dbzgtlegacy.com text/call 09202555952 P E A C E!!!
Comments