Goo Goo Dolls - Naked Chords & Tabs

 

Naked Chords & Tabs

Goo Goo Dolls Chords & Tabs

Version: 1 Type: Bass Tab 0 ratings
1 star 2 stars 3 stars 4 stars 5 stars
comments

Naked Bass Tab

NAKED. BY GOO GOO DOLLS
FROM THE ALBUM: A BOY NAMED GOO
WRITTEN BY J. RZEZNIK

INTRO:

G------------------------I-----------------I
D-3---3---3-3-3-3--3-----I-----------------I
A------------------------I--0---0-0-0--0/--I
E------------------------I-----------------I   (X4)

VERSE:

G----------I------------I
D-3-3-3-3--I--5--4(h)5--I
A----------I------------I
E----------I------------I

BRIDGE:

G----------------I---------------I
D----------------I---------------I
A--8-8-8-8-8-7/--I--8-8-8-8-8-5/-I
E----------------I---------------I   (X2)

CHORUS:

G--------------I---------------I
D--------------I---------------I
A--------0--3--I--------0------I
E--1--3--------I--1--3------3--I (X3)

I---------------I---------------I
I---------------I---------------I
I------------0--I---------------I
I--3-3-3-3-3----I--1-1-1-1-1-1--I


(PLAY INTRO PART X4)

(VERSE)

(BRIDGE)

(CHORUS)

SOLO:
[ Tab from: http://www.guitartabs.cc/tabs/g/goo_goo_dolls/naked_btab.html ]
G-------------I-------------I-------------I-------------I
D-------------I-------------I-------------I-------------I
A-------------I-------------I--0-0-0-0-0--I--3-3-3-3-3--I
E--3-3-3-3-3/-I--1-1-1-1-1\-I-------------I-------------I (X4)

(CHORUS)


G-------------I-------------I-------------I-------------I
D-------------I-------------I-------------I-------------I
A----------0--I-------------I----------0--I-------------I
E--3-3-3-3----I--1-1-1-1-1--I--3-3-3-3----I--1-1-1-1-1--I

G-------------I-------------I-------------I-------------I
D-------------I-------------I-------------I-------------I
A----------0--I-------------I----------0--I-------------I
E--3-3-3-3----I--1-1-1-1-1--I--3-3-3-3----I--1-1-1-1-1--I

G-------------I-------------I
D-------------I-------------I
A----------0--I-------------I
E--3-3-3-3----I--1----------I


This is my interpretaion and I haven't been playing too long so
it is probably way out but it sounds close enough to me. Mail me
any alterations at davegrinter@hotmail.com

Comments