Goo Goo Dolls - Lucky Star Chords & Tabs

 

Lucky Star Chords & Tabs

Goo Goo Dolls Chords & Tabs

Version: 1 Type: Bass Tab 0 ratings
1 star 2 stars 3 stars 4 stars 5 stars
comments

Lucky Star Bass Tab

   
Standard Tuning

Intro:
G|-------------------------------|
D|-------------------------------|
A|-3-3-3-3-3-2-2-2-2-2-0-0-0-0-0-|
E|-------------------------------|

G|-------------5-5-5-5---4-4-4-4-|
D|-----------3---------2---------|
A|-------------------------------|
E|-3-3-3-3-3---------------------|

G|-------------------------------|
D|-------------------------------|
A|-----2-2-3-3-----5-5-3-3-2-2---|
E|-3-3---------3-3-------------3-|

Verse:
G|-------------------------------|
D|-------------------------------|
A|-3-3-3-3-3-2-2-2-2-2-0-0-0-0-0-|
E|-------------------------------|

G|---------------------------|
D|---------------------------|
A|---------------------------|
E|-3-3-3-3-3-1-1-1-1-0-0-0-0-|

G|-------------------------------|
D|-------------------------------|
A|-----2-2-3-3-----5-5-3-3-2-2---|
E|-3-3---------3-3-------------3-|

G|-------------------------------|
D|-------------------------------|
A|-3-3-3-3-3-2-2-2-2-2-0-0-0-0-0-|
E|-------------------------------|

G|-----------------------------------|
D|-----------------------------------|
A|-----------------------------------|
E|-3-3-3-3-3-1-1-1-1-0-0-0-0-3-3-3-3-|

PreChorus:
G|-----------------------------------------|
D|-----------------------------------------|
A|-----------------------------------------|
E|-1-1-1-1-1-0-0-0-0-0-3-3-3-3-3-3-3-3-3-3-|

Verse2:
G|-------------------------------|
D|-------------------------------|
A|-3-3-3-3-3-2-2-2-2-2-0-0-0-0-0-|
E|-------------------------------|

G|---------------------------|
D|---------------------------|
A|---------------------------|
E|-3-3-3-3-3-1-1-1-1-0-0-0-0-|

G|---------------------------|
D|---------------------------|
A|-----------5-5-3-3-2-2-----|
E|-3-3-3-3-3-------------3-3-|

G|-------------------------------|
D|-------------------------------|
A|-3-3-3-3-3-2-2-2-2-2-0-0-0-0-0-|
E|-------------------------------|

G|-------------------------------------------|
D|-------------------------------------------|
A|-------------------------------------------|
E|-3-3-3-3-3-1-1-1-1-0-0-0-0-3-3-3-3-3-3-3-3-|
[ Tab from: http://www.guitartabs.cc/tabs/g/goo_goo_dolls/lucky_star_btab.html ]
Prechorus:
G|-----------------------------------------|
D|-----------------------------------------|
A|-----------------------------------------|
E|-1-1-1-1-1-0-0-0-0-0-3-3-3-3-3-3-3-3-3-3-|

G|-----------------------------------------|
D|-----------------------------------------|
A|---------------------5-5-5-5-5-5-5-5-5-5-|
E|-1-1-1-1-1-0-0-0-0-0---------------------|

Chorus:
G|---------------------------------|
D|---------------------------------|
A|-3-3-3-3---------1-1-1-1---------|
E|---------3-3-3-3---------1-1-1-1-| x2

G|-------------------------------|
D|-------------------------------|
A|-3-3-3-3-3-2-2-2-2-2-0-0-0-0-0-|
E|-------------------------------|

G|-------------5-5-5-5---4-4-4-4-|
D|-----------3---------2---------|
A|-------------------------------|
E|-3-3-3-3-3---------------------|

G|-------------------------------|
D|-------------------------------|
A|-----2-2-3-3-----5-5-3-3-2-2---|
E|-3-3---------3-3-------------3-|

Verse3:
G|-------------------------------|
D|-------------------------------|
A|-3-3-3-3-3-2-2-2-2-2-0-0-0-0-0-|
E|-------------------------------|

G|---------------------------|
D|---------------------------|
A|---------------------------|
E|-3-3-3-3-3-1-1-1-1-0-0-0-0-|

G|---------------------------|
D|---------------------------|
A|-----------5-5-3-3-2-2-----|
E|-3-3-3-3-3-------------3-3-|

G|-------------------------------|
D|-------------------------------|
A|-3-3-3-3-3-2-2-2-2-2-0-0-0-0-0-|
E|-------------------------------|

G|-------------------------------------------|
D|-------------------------------------------|
A|-------------------------------------------|
E|-3-3-3-3-3-1-1-1-1-0-0-0-0-3-3-3-3-3-3-3-3-|

Prechorus:
G|-----------------------------------------|
D|-----------------------------------------|
A|-----------------------------------------|
E|-1-1-1-1-1-0-0-0-0-0-3-3-3-3-3-3-3-3-3-3-|

G|-----------------------------------------|
D|-----------------------------------------|
A|---------------------5-5-5-5-5-5-5-5-5-5-|
E|-1-1-1-1-1-0-0-0-0-0---------------------|

Chorus:
G|---------------------------------|
D|---------------------------------|
A|-3-3-3-3---------1-1-1-1---------|
E|---------3-3-3-3---------1-1-1-1-| x2

G|---------------------------------|
D|---------------------------------|
A|-3-3-3-3---------1-1-1-1---------|
E|---------3-3-3-3---------1-1-1-1-| x5

Outro:
G|--------------------|
D|---------0-0-0-0----|
A|-----------------3*-|
E|-1-1-1-1------------|
Comments