Goo Goo Dolls - Long Way Down Chords & Tabs

 

Long Way Down Chords & Tabs

Goo Goo Dolls Chords & Tabs

Version: 2 Type: Tab 0 ratings
1 star 2 stars 3 stars 4 stars 5 stars
comments

Long Way Down Tab

   
tuning: drop d
This is a cool song and it's easy to play.

Riff 1
 guitar 1
E|---------------------------------------|
B|---------------------------------------|
G|---------------------------------------|
D|-7-/9-9-x-x-12-12-11-7-9-x-7--5--7-----|
A|-7-/9-9-x-x-12-12-11-7-9-x-7--5--7-----|
D|-7-/9-9-x-x-12-12-11-7-9-x-7--5--7-----|

Riff 2
 guitar 2
E|----------------------------------------------------------|
B|----------------------------------------------------------|
G|----------------------------------------------------------| ' 3X
D|--------------------------------11-h12-12-12-12-12-12-12--|
A|----------------------------------------------------------|
D|----------------------------------------------------------|

E|-----------------------------------------------------------------------|
B|-----------------------------------------------------------------------|
G|-----------------------------------------------------------------------|
D|-/19-17-16-14--14-h16-p14-12-\11-11-h12-12-12-12-11-h12-12-12-12-12-12-|
A|-----------------------------------------------------------------------|
D|-----------------------------------------------------------------------|


E|--------------------------------------------------------|
B|--------------------------------------------------------|
G|--------------------------------------------------------|
D|-/19-17-16-14--14-h16-p14-12-\11-11-h12-----------------|
A|--------------------------------------------------------|
D|--------------------------------------------------------|


Riff 3
 guitar 1

E|----------------|
B|----------------|
G|----------------|
D|-9-7-5--7--7-/9-|
A|-9-7-5--7--7-/9-|
D|-9-7-5--7--7-/9-|

Riff 4
 guitar 1
E|------|    
B|------|
G|------|
D|-9-7--|
A|-9-7--|
D|-9-7--|

E|-----------------|
B|-----------------|
G|-----------------|  
D|-5-555--7-777----| 3X
A|-5-555--7-777----|
D|-5-555--7-777----|

E|---|
B|---|
G|---|
D|-9-|   16X
A|-9-|
D|-9-|

Riff 5
 guitar 1

E|-----------------------------------------------------------------|
B|-----------------------------------------------------------------|
G|-----------------------------------------------------------------|
D|-9-9-9-9-9-9-9-9-5-5-5-5-5-5-5-5-7-7-7-7-7-7-7-7-5-5-5-5-5-5-5-5-|  4X
A|-9-9-9-9-9-9-9-9-5-5-5-5-5-5-5-5-7-7-7-7-7-7-7-7-5-5-5-5-5-5-5-5-|
D|-9-9-9-9-9-9-9-9-5-5-5-5-5-5-5-5-7-7-7-7-7-7-7-7-5-5-5-5-5-5-5-5-|


guitar 2
[ Tab from: http://www.guitartabs.cc/tabs/g/goo_goo_dolls/long_way_down_tab_ver_2.html ]
E|-----------------------------------------------------|
B|-----------------------------------------------------|
G|-----------------------------------------------------|
D|---------------------12-11-12-14-/16-16-16-----------|
A|-9-12--14-p12-14-12----------------------------------|
D|-----------------------------------------------------|

E|-----------------------------------------------------------|
B|-----------------------------------------------------------|
G|-11-h14-16-16-\14-14-h16-16-16\--11-/9-11-h14-14-16-p14-16-|
D|-----------------------------------------------------------|
A|-----------------------------------------------------------|
D|-----------------------------------------------------------|
             _bend 1/4 5X
E|----------/-------------------------------------------------------|
B|-12-h15-b18------15-----------------------------------------------|
G|--------------16----16-16\14-14\12-12p11-11\9-9\7-7\6-6h7-6h7-6h7-|
D|------------------------------------------------------------------|
A|------------------------------------------------------------------|
D|------------------------------------------------------------------|

E|------------------------------------------------------------------|
B|------------------------------------------------------------------|
G|-6h7-6h7-6h7-6h7-6h7-6h7-6h7-6h7-6h7-6h7-6h7-6h7-6h7-6-6h7p6------|
D|----------------------------------------------h7--h7--5------9p7h9|
A|------------------------------------------------------------------|
D|------------------------------------------------------------------|

Riff 6
 guitar 1

E|-------------------------------------------------------|
B|-------------------------------------------------------|
G|-------------------------------------------------------|
D|-5--7--5--7--5--7--5--7---9-9-7--9-9-5-----------------|
A|-5--7--5--7--5--7--5--7---9-9-7--9-9-5-----------------|
D|-5--7--5--7--5--7--5--7---9-9-7--9-9-5-----------------|

 guitar 2

E|---------------------------------------------|
B|---------------------------------------------|
G|---------------------------------------------|
D|---------------------55-3--------------------|
A|-------------2--4--5-------------------------|
D|---------------------------------------------|



intro:
 Riff 1
 Riff 2
Verse 1:
 Bass
 Riff 3
 More bass
 Riff 4
chorus:
 Riff 1
Solo:
 Riff 5
Verse 2:
 Same as verse 1
outro:
 Riff 6


i'm not sure about the end of the solo but i'm
pretty sure everything else is right

            mike
Comments