Goo Goo Dolls - Laughing Chords & Tabs

 

Laughing Chords & Tabs

Goo Goo Dolls Chords & Tabs

Version: 1 Type: Bass Tab 0 ratings
1 star 2 stars 3 stars 4 stars 5 stars
comments

Laughing Bass Tab

   
C# x4xx

B  x2xx

A  x0xx

E  0xxxIntro: 

G -----------------------------------------------------------------|
D -------------2-1------------2-1----------------------------------|
A --4-44-44-44-----2-22-22-22-----0-00-00---------2-22-22-22-22-3--|
E ----------------------------------------0-00-00------------------|

(play 2 times)Verse:

 C#              B                

I wake up I'm staring at the clock

A          E            B 

My belly hurts and my head is like a rock 

C#          B                             

I get up to see what I see what I can see 

 A              E           B     

Furthest that I got was my black and white tv

C#               B                   

Eyewitness news brought to you at noon

 A     E    B                B-C-C#-D

 Oh my god guess I got up to soon becauseChorus:

G -----------|------------|--------9---|-9-9-7-7-6-6----
D -------9---|--------9---|-7--7-7---7-|------------9---
A ---7-7---7-|-7--7-7---7-|------------|----------------
E -0---------|------------|------------|----------------
[ Tab from: http://www.guitartabs.cc/tabs/g/goo_goo_dolls/laughing_btab.html ]
         Oh  I feel like laughing                             

         Oh  I feel like laughing                                 

         Oh  I feel like laughing                                     

G -----------------------------------|
D -----------------------------------|
A ------------------7-7-7-7-7-7-7-7--|
E -7-7-7-7-5-5-5-5-------------------|

   All   because of you

   All   because of you(Verse)

I didn't mean to wear this disguise

But I couldn't stand the look in my eyes

Oh I didn't mean to lie

I was doing what I thought was right

Come on walk right down the line

You'll be walkin' till the end of time because(Chorus)

Oh I feel like laughing                             
Oh I feel like laughing                                 

Oh I feel like laughing   

All because of you

All because of you

                                  

Solo:

C#-B-A-E-B

C#-B-A-E-B

C#-B-A-E-B

C#-B-A-E-B-C-C#-D(Chorus)

Oh I feel like laughing                             

Oh I feel like laughing                                 

Oh I feel like laughing   

All because of you

All because of you(intro 6 times)C# - C#
Comments