Goo Goo Dolls - Its Over Chords & Tabs

 

Its Over Chords & Tabs

Goo Goo Dolls Chords & Tabs

Version: 2 Type: Tab 0 ratings
1 star 2 stars 3 stars 4 stars 5 stars
comments

Its Over Tab

   
Song Title: It's Over
Artist: Goo Goo Dolls
Album: Gutterflower
Tabbed by Lance

This is one of my favorites off the album. There are a lot of weird
effects that made this hard to tab, but this is a good start.

Tuning (low to high): E A D G C E
(The famous B to C Johnny tuning!)

Intro and Verse Chords
E----0----0---------------------------------------
C----0----0---------------------------------------
G----2----0---------------------------------------
D----2----5---------------------------------------
A----0----3---------------------------------------
E----X----X---------------------------------------
[ Tab from: http://www.guitartabs.cc/tabs/g/goo_goo_dolls/its_over_tab_ver_2.html ]
Pre-Chorus Chords
E-------------------------------------------------
C-------------------------------------------------
G-------------------------------------------------
D----3----5---------------------------------------
A----3----5---------------------------------------
E----1----3---------------------------------------

Chorus
E-------------------------------------------------
C--------0-0-0-0----------------------------------
G-10/12--X-X-X-X--4-4-4-4/5-5-5-5-5-5-5\7---------
D--X--X--2-2-2-2--X-X-X-X-X-X-X-X-X-X-X-X---------
A--8/10--0-0-0-0--2-2-2-2/3-3-3-3-3-3-3\5---------
E--------X-X-X-X----------------------------------

E-------------------------------------------------
C--------0-0-0-0----------------------------------
G--------X-X-X-X--4-4-4-4/5-5-5-5-5-5-5\4---------
D--------2-2-2-2--X-X-X-X-X-X-X-X-X-X-X-X---------
A--------0-0-0-0--2-2-2-2/3-3-3-3-3-3-3\2---------
E--------X-X-X-X----------------------------------

Bridge Chords (in order)
E-------------------------------------------------
C-------------------------------------------------
G----2--------2--------------2--------------------
D----2--5--5--2--5--5--3--5--2--5--4--3--5--------
A----0--3--5--0--3--5--3--5--0--3--2--3--5--------
E----X--X--3--X--X--3--1--3--X--X--X--1--3--------
Comments