Goo Goo Dolls - Iris Chords & Tabs

 

Iris Chords & Tabs

Goo Goo Dolls Chords & Tabs

Version: 9 Type: Tab 0 ratings
1 star 2 stars 3 stars 4 stars 5 stars
comments

Iris Tab

   
IRIS
As recorded by Goo Goo Dolls
(From the 1998 Album DIZZY UP THE GIRL)

Transcribed by Ethan Wallace
	

Words and Music by John Rzeznik

Gtr I (B D D D D D) - 'Acoustic Guitar'
Gtr II (E A B G B E) - 'Mandolin'
Gtr III (B D D D D D) - 'Strings'
Gtr IV (E A B G B E) - 'Electric Slide Guitar'

   Intro
    Slow Ballad Q=80
    Bm
   4/4
    Gtr I
     E    S  S  +S   S  E    +S   S  E    E    S  S
||---0----0--0--(0)--0--0----(0)--0--0----0----0--0-|
||o--0----0--0--(0)--0--0----(0)--0--0----0----0--0-|
||--12---12-12-(12)-12-11---(11)-11-11---11---11-11-|
||---0----0--0--(0)--0--0----(0)--0--0----0----0--0-|
||o-12---12-12-(12)-12-12---(12)-12-12---12---12-12-|
||---0----0--0--(0)--0--0----(0)--0--0----0----0--0-|
|
|   Gtr II
|    S S  S  S   S   S  S S   S   S  S S  S S  S  S
||-----7-----7-------7----7-------7----7----7-----7-|
||o--------------------10----10-----10----8----8----|
||---7----7------7----------------------------------|
||--------------------------------------------------|
||o-------------------------------------------------|
||--------------------------------------------------|


  G
  E   S S +S  S E   +S  S E   E   S S
|-0---0-0-(0)-0-0---(0)-0-0---0---0-0---||
|-0---0-0-(0)-0-0---(0)-0-0---0---0-0--o||
|-5---5-5-(5)-5-4---(4)-0-0---0---0-0---||
|-0---0-0-(0)-0-0---(0)-0-0---0---0-0---||
|-5---5-5-(5)-5-5---(5)-5-5---5---5-5--o||
|---------------------------------------||
|
| S S S S  S  S S S  S  S S S S S S S
|---7---7-----7---7-----7---7---7---7---||
|-7---7----7---------------------------o||
|---------------9----9----9---7---7-----||
|---------------------------------------||
|--------------------------------------o||
|---------------------------------------||


 1st Verse
  D         E           G                     Bm        Asus4
 6/8
  E S S S S E S S S S   E S S S S E S S S S   E S S S S E S S S S
|-----0---------0-----|-----0---------0-----|-----0---------0-----|
|---------------------|---------------------|---------------------|
|-------0---------0---|-------0---------0---|-------0---------0---|
|---0-----0---0-----0-|---0-----0---0-----0-|---0-----0---0-----0-|
|-0-------------------|-5---------0---------|-9---------7---------|
|-----------5---------|---------------------|---------------------|


  G                     D         E
  E S S S S E S S S S   E S S S S E S S S S
|-----0---------0-----|-----0---------0-----|
|---------------------|---------------------|
|-------0---------0---|-------0---------0---|
|---0-----0---0-----0-|---0-----0---0-----0-|
|-5---------0---------|-0-------------------|
|---------------------|-----------5---------|


  G                     Bm        Asus4
  E S S S S E S S S S   E S S S S E S S S S
|-----0---------0-----|-----0---------0-----|
|---------------------|---------------------|
|-------0---------0---|-------0---------0---|
|---0-----0---0-----0-|---0-----0---0-----0-|
|-5---------0---------|-9---------7---------|
|---------------------|---------------------|


  G
  E  S  S   S  S  E  S S   S  S
|-------0--------------0--------||
|-------------------------------||
|-----------0--------------0----||
|----0---------0-----0--------0-||
|-5---------------0-------------||
|-------------------------------||
|
| Gtr III
| W
|-------------------------------||
|-------------------------------||
|-------------------------------||
|-------------------------------||
|-------------------------------||
|-------------------------------||
|
| Gtr II
| E  E      E     Q        E
|------------------------<12>---||
|---------<12>---<7>------------||
|---<7>-------------------------||
|-------------------------------||
|-------------------------------||
|-------------------------------||


 2nd Verse
  D           E            G
   E  S S S S E  S S S S   E  S S S S E S S S S
|-------0----------0-----|------0---------0------|
|------------------------|-----------------------|
|---------0----------0---|--------0---------0----|
|-----0-----0----0-----0-|----0-----0---0-----0--|
|--0---------------------|-5----------0----------|
|-------------5----------|-----------------------|
|
|  Q.         Q.           H.
|------------------------|-----------------------|
|------------------------|-----------------------|
|------------------------|-----------------------|
|------------------------|-----------------------|
|------------------------|-----------------------|
|--3----------5----------|-8---------------------|
|
|  Q.         Q.           W
|------------------------|-----------------------|
|-<7>--------------------|-----------------------|
|------------------------|-----------------------|
|------------------------|-----------------------|
|------------------------|-----------------------|
|------------------------|-----------------------|


  Bm         Asus4        G                      D          E
  E  S S S S E  S S S S   E  S S S S E S S S S   E  S S S S E  S S S S
|------0----------0-----|------0---------0-----|------0----------0------|
|-----------------------|----------------------|------------------------|
|--------0----------0---|--------0---------0---|--------0----------0----|
|----0-----0----0-----0-|----0-----0---0-----0-|----0-----0----0-----0--|
|-9----------7----------|-5----------0---------|-0----------------------|
|-----------------------|----------------------|------------5-----------|
|
| Gtr III
| Q.         Q.           H.                     Q.         Q.
|-----------------------|----------------------|------------------------|
|-----------------------|----------------------|------------------------|
|-----------------------|----------------------|------------------------|
|-----------------------|----------------------|------------------------|
|-9----------7----------|-5--------------------|------------------------|
|-----------------------|----------------------|-3----------5-----------|


  G                      Bm          Asus4
  E  S S S S E S S S S    E  S S S S  E  S S S S
|------0---------0-----|-------0-----------0-----|
|----------------------|-------------------------|
|--------0---------0---|---------0-----------0---|
|----0-----0---0-----0-|-----0-----0-----0-----0-|
|-5----------0---------|--9-----------7----------|
|----------------------|-------------------------|
|
| Gtr III
| H.                      Q.          Q.
|----------------------|-------------------------|
|----------------------|--0-----------0----------|
|----------------------|-------------------------|
|----------------------|-------------------------|
|----------------------|-------------------------|
|-8--------------------|-12----------10----------|
|                         Q.          Q.
|
| Gtr II
| W                       W
|----------------------|-------------------------|
|----------------------|-------------------------|
|----------------------|-------------------------|
|----------------------|-------------------------|
|----------------------|-------------------------|
|----------------------|-------------------------|


  G
   E    S  S  S  S  E    S  S  S  S
|----------0--------0----0--0--0--0--||
|-------------------0----0--0--0--0--||
|-------------0-----0----0--0--0--0--||
|-------0--------0--0----0--0--0--0--||
|--5----------------5----5--5--5--5--||
|------------------------------------||
|
|  H.
|------------------------------------||
|--0---------------------------------||
|------------------------------------||
|------------------------------------||
|------------------------------------||
|--8---------------------------------||
|  H.
|
|  E    E     E     E    E     E
|------------------------------------||
|------------------------------------||
|-----<12>---<7>-------<12>---<7>----||
|-<7>--------------<7>---------------||
|------------------------------------||
|------------------------------------||


 Chorus
  Bm              Asus4
   E   S  S  S  S  E   S  S  S  S
|--0---0--0--0--0--0---0--0--0--0-|
|--0---0--0--0--0--0---0--0--0--0-|
|--9---9--9--9--9--7---7--7--7--7-|
|--0---0--0--0--0--0---0--0--0--0-|
|--9---9--9--9--9--7---7--7--7--7-|
|---------------------------------|
|
|  Q.              Q.
|---------------------------------|
|---------------------------------|
|--9--------------11--------------|
|---------------------------------|
|--9---------------7--------------|
|---------------------------------|
|  Q.              Q.
|
|  E   S  S  S  S  E   S  S  S  S
|---------------------------------|
|-15--15-15-15-15-14--14-14-14-14-|
|-16--16-16-16-16-14--14-14-14-14-|
|---------------------------------|
|---------------------------------|
|---------------------------------|


  G                                  Bm              Asus4
   E   S  S  S  S   E   S  S  S  S    E   S  S  S  S  E   S  S  S  S
|--0---0--0--0--0---0---0--0--0--0-|--0---0--0--0--0--0---0--0--0--0--|
|--0---0--0--0--0---0---0--0--0--0-|--0---0--0--0--0--0---0--0--0--0--|
|--5---5--5--5--5---5---5--5--5--5-|--9---9--9--9--9--7---7--7--7--7--|
|--0---0--0--0--0---0---0--0--0--0-|--0---0--0--0--0--0---0--0--0--0--|
|--5---5--5--5--5---5---5--5--5--5-|--9---9--9--9--9--7---7--7--7--7--|
|----------------------------------|----------------------------------|
|
|  Q.              +Q         E       Q.              Q.
|----------------------------------|----------------------------------|
|----------------------------------|----------------------------------|
|-11--------------(11)-------12----|--9---------------7---------------|
|----------------------------------|----------------------------------|
|--5-------------------------------|--9---------------7---------------|
|----------------------------------|----------------------------------|
|  H.                                 Q.              Q.
|
|  E   S  S  S  S   E   S  S  S  S    E   S  S  S  S  E   S  S  S  S
|------------------14--14-14-14-14-|-14--14-14-14-14-15--15-15-15-15--|
|-15--15-15-15-15--15--15-15-15-15-|-15--15-15-15-15-15--15-15-15-15--|
|-16--16-16-16-16------------------|----------------------------------|
|----------------------------------|----------------------------------|
|----------------------------------|----------------------------------|
|----------------------------------|----------------------------------|


  G                                Bm              Asus4
   E   S  S  S  S  E  S  S  S  S    E   S  S  S  S  E   S  S  S  S
|--0---0--0--0--0--0--0--0--0--0-|--0---0--0--0--0--0---0--0--0--0-|
|--0---0--0--0--0--0--0--0--0--0-|--0---0--0--0--0--0---0--0--0--0-|
|--5---5--5--5--5--5--5--5--5--5-|--9---9--9--9--9--7---7--7--7--7-|
|--0---0--0--0--0--0--0--0--0--0-|--0---0--0--0--0--0---0--0--0--0-|
|--5---5--5--5--5--5--5--5--5--5-|--9---9--9--9--9--7---7--7--7--7-|
|--------------------------------|---------------------------------|
|
|  H.                               Q.              Q.
|--------------------------------|---------------------------------|
|--------------------------------|---------------------------------|
|--7-----------------------------|--9--------------11--------------|
|--------------------------------|---------------------------------|
|--5-----------------------------|--9---------------7--------------|
|--------------------------------|---------------------------------|
|  H.                               Q.              Q.
|
|  E   S  S  S  S  E  S  S  S  S    E   S  S  S  S  E   S  S  S  S
|-17--17-17-17-17-17-17-17-17-17-|-14--14-14-14-14-17--17-17-17-17-|
|-17--17-17-17-17-17-17-17-17-17-|-15--15-15-15-15-17--17-17-17-17-|
|--------------------------------|---------------------------------|
|--------------------------------|---------------------------------|
|--------------------------------|---------------------------------|
|--------------------------------|---------------------------------|


  G
   E   S  S  S  S   E   S  S  S  S
|--0---0--0--0--0---0---0--0--0--0--|
|--0---0--0--0--0---0---0--0--0--0--|
|--5---5--5--5--5---5---5--5--5--5--|
|--0---0--0--0--0---0---0--0--0--0--|
|--5---5--5--5--5---5---5--5--5--5--|
|-----------------------------------|
|
|  Q.              +Q         E
|-----------------------------------|
|-----------------------------------|
|-11--------------(11)-------12-----|
|-----------------------------------|
|--5--------------------------------|
|-----------------------------------|
|  H.
|
|  E   S  S  S  S   E   S  S  S  S
|-19--19-19-19-19--19--19-19-19-19--|
|-19--19-19-19-19--19--19-19-19-19--|
|-----------------------------------|
|-----------------------------------|
|-----------------------------------|
|-----------------------------------|


  Bm              Asus4             G
   E   S  S  S  S  E   S  S  S  S    E   S  S  S  S  E  S  S  S  S
|--0---0--0--0--0--0---0--0--0--0-|--0---0--0--0--0--0--0--0--0--0-||
|--0---0--0--0--0--0---0--0--0--0-|--0---0--0--0--0--0--0--0--0--0-||
|--9---9--9--9--9--7---7--7--7--7-|--5---5--5--5--5--5--5--5--5--5-||
|--0---0--0--0--0--0---0--0--0--0-|--0---0--0--0--0--0--0--0--0--0-||
|--9---9--9--9--9--7---7--7--7--7-|--5---5--5--5--5--5--5--5--5--5-||
|---------------------------------|--------------------------------||
|
|  Q.              Q.                H.
|---------------------------------|--------------------------------||
|---------------------------------|--------------------------------||
|--9---------------7--------------|--7-----------------------------||
|---------------------------------|--------------------------------||
|--9---------------7--------------|--5-----------------------------||
|---------------------------------|--------------------------------||
|  Q.              Q.                H.
|
|  E   S  S  S  S  E   S  S  S  S    E   S  S  S  S  E  S  S  S  S
|-14--14-14-14-14-17--17-17-17-17-|-19--19-19-19-19-19-19-19-19-19-||
|-15--15-15-15-15-17--17-17-17-17-|-19--19-19-19-19-19-19-19-19-19-||
|---------------------------------|--------------------------------||
|---------------------------------|--------------------------------||
|---------------------------------|--------------------------------||
|---------------------------------|--------------------------------||


 Re-intro
  Bm
  E    S S +S  S  E     S   E     S  E    E
|-0----0-0-(0)-0--0-----0---0-----0--0----0---|
|-0----0-0-(0)-0--0-----0---0-----0--0----0---|
|-9----9-9-(9)-9-11----11--11----11-11---12---|
|-0----0-0-(0)-0--0-----0---0-----0--0----0---|
|-9----9-9-(9)-9-11----11--11----11-11---12---|
|---------------------------------------------|
|
| Q.              E    +Q.                E
|---------------------------------------------|
|---------------------------------------------|
|---------------------------------------------|
|---------------------------------------------|
|-9--------------11---(11)---------------12---|
|---------------------------------------------|
|
| S  S S S  S  S  S S   S   S  S  S  S S  S S
|----7---7-----7----7-------7-----7----7----7-|
|----------------10----10-----10-----8----8---|
|-7----7----7---------------------------------|
|---------------------------------------------|
|---------------------------------------------|
|---------------------------------------------|


  G
  E   S S +S  S E   S E   S S S E
|-0---0-0-(0)-0-0---0-0---0-0-0-0---|
|-0---0-0-(0)-0-0---0-0---0-0-0-0---|
|-5---5-5-(5)-5-4---4-4---4-5-4-0---|
|-0---0-0-(0)-0-0---0-0---0-0-0-0---|
|-5---5-5-(5)-5-5---5-5---5-5-5-5---|
|-----------------------------------|
|
| W
|-----------------------------------|
|-----------------------------------|
|-----------------------------------|
|-----------------------------------|
|-5---------------------------------|
|-----------------------------------|
|
| S S S S  S  S S S S S S S S S S S
|---7---7-----7---7---7---7---7---7-|
|-7---7----7------------------------|
|---------------9---9---9---7---7---|
|-----------------------------------|
|-----------------------------------|
|-----------------------------------|


  Bm                                            G
                                               6/8
  E    S S +S  S  E     S   E     S  E    E     E    S E   S E   S S E
|-0----0-0-(0)-0--0-----0---0-----0--0----0---|-0----0-0---0-0---0-0-0---||
|-0----0-0-(0)-0--0-----0---0-----0--0----0---|-0----0-0---0-0---0-0-0---||
|-9----9-9-(9)-9-11----11--11----11-11---12---|-5----5-5---5-4---4-4-4---||
|-0----0-0-(0)-0--0-----0---0-----0--0----0---|-0----0-0---0-0---0-0-0---||
|-9----9-9-(9)-9-11----11--11----11-11---12---|-5----5-5---5-5---5-5-5---||
|---------------------------------------------|--------------------------||
|
| Q.              E    +Q.                E     Q.           Q       E
|---------------------------------------------|--------------------------||
|---------------------------------------------|--------------------------||
|---------------------------------------------|--------------------------||
|---------------------------------------------|--------------------------||
|-9--------------11---(11)---------------12---|-5------------4-------0---||
|---------------------------------------------|--------------------------||
|
| S  S S S  S  S  S S   S   S  S  S  S S  S S   S  S S S S S S S S S S S
|----7---7-----7----7-------7-----7----7----7-|----7---7---7---7---7---7-||
|----------------10----10-----10-----8----8---|-7----7---7---------------||
|-7----7----7---------------------------------|--------------9---9---7---||
|---------------------------------------------|--------------------------||
|---------------------------------------------|--------------------------||
|---------------------------------------------|--------------------------||


 Verse 3
  D         E           G                     Bm        Asus4
  E S S S S E S S S S   E S S S S E S S S S   E S S S S E S S S S
|-----0---------0-----|-----0---------0-----|-----0---------0------|
|---------------------|---------------------|----------------------|
|-------0---------0---|-------0---------0---|-------0---------0----|
|---0-----0---0-----0-|---0-----0---0-----0-|---0-----0---0-----0--|
|-0-------------------|-5---------0---------|-9---------7----------|
|-----------5---------|---------------------|----------------------|
|
| Gtr II
| W                     W                     W
|---------------------|---------------------|----------------------|
|---------------------|---------------------|----------------------|
|---------------------|---------------------|----------------------|
|---------------------|---------------------|----------------------|
|---------------------|---------------------|----------------------|
|---------------------|---------------------|----------------------|


  G                           D         E           G
  E  S  S  S S  E  S S  S S   E S S S S E S S S S   E  S S S S  E  S S S S
|-------0------------0------|-----0---------0-----|------0-----------0------|
|---------------------------|---------------------|-------------------------|
|----------0------------0---|-------0---------0---|--------0-----------0----|
|----0-------0-----0------0-|---0-----0---0-----0-|----0-----0-----0-----0--|
|-5-------------0-----------|-0-------------------|-5-----------0-----------|
|---------------------------|-----------5---------|-------------------------|
|
| E  S  S  E    E  E    E     W                     Q.          E  Q
|---------10-----------10---|---------------------|---------------17--------|
|---------------------------|---------------------|------------15-----------|
|---11-12------11-11--------|---------------------|-------------------------|
|---------------------------|---------------------|-------------------------|
|---------------------------|---------------------|-------------------------|
|---------------------------|---------------------|-------------------------|


  Bm          Asus4         G
   E  S S S S  E  S S S S   E  S  S  S  S  E  S  S  S S
|-------0-----------0-----|-------0--------0--0--0--0-0-||
|-------------------------|----------------0--0--0--0-0-||
|---------0-----------0---|----------0-----0--0--0--0-0-||
|-----0-----0-----0-----0-|----0--------0--0--0--0--0-0-||
|--9-----------7----------|-5--------------5--5--5--5-5-||
|-------------------------|-----------------------------||
|
|  E  Q        Q.           E.    S  S  S  E  S  S  E
|----17-------------------|------14-14-14-14-14-14-14---||
|-14----------------------|------15-15-15-15-15-15-15---||
|-------------16----------|-----------------------------||
|-------------------------|-----------------------------||
|-------------------------|-----------------------------||
|-------------------------|-----------------------------||


 2nd Chorus
  Bm             Asus4            G
   E  S  S  S  S  E  S  S  S  S    E  S  S  S  S  E  S  S  S  S
|--0--0--0--0--0--0--0--0--0--0-|--0--0--0--0--0--0--0--0--0--0-|
|--0--0--0--0--0--0--0--0--0--0-|--0--0--0--0--0--0--0--0--0--0-|
|--9--9--9--9--9--7--7--7--7--7-|--5--5--5--5--5--5--5--5--5--5-|
|--0--0--0--0--0--0--0--0--0--0-|--0--0--0--0--0--0--0--0--0--0-|
|--9--9--9--9--9--7--7--7--7--7-|--5--5--5--5--5--5--5--5--5--5-|
|-------------------------------|-------------------------------|
|
|  E  S  S  S  S  E  S  S  S  S    E  S  S  S  S  E  S  S  S  S
|-------------------------------|----------------14-14-14-14-14-|
|-15-15-15-15-15-14-14-14-14-14-|-15-15-15-15-15-15-15-15-15-15-|
|-16-16-16-16-16-14-14-14-14-14-|-16-16-16-16-16----------------|
|-------------------------------|-------------------------------|
|-------------------------------|-------------------------------|
|-------------------------------|-------------------------------|


  Bm             Asus4
   E  S  S  S  S  E  S  S  S  S
|--0--0--0--0--0--0--0--0--0--0--|
|--0--0--0--0--0--0--0--0--0--0--|
|--9--9--9--9--9--7--7--7--7--7--|
|--0--0--0--0--0--0--0--0--0--0--|
|--9--9--9--9--9--7--7--7--7--7--|
|--------------------------------|
|
|  E  S  S  S  S  E  S  S  S  S
|-14-14-14-14-14-15-15-15-15-15--|
|-15-15-15-15-15-15-15-15-15-15--|
|--------------------------------|
|--------------------------------|
|--------------------------------|
|--------------------------------|


  G                               Bm             Asus4
   E  S  S  S  S  E  S  S  S  S    E  S  S  S  S  E  S  S  S  S
|--0--0--0--0--0--0--0--0--0--0-|--0--0--0--0--0--0--0--0--0--0-|
|--0--0--0--0--0--0--0--0--0--0-|--0--0--0--0--0--0--0--0--0--0-|
|--5--5--5--5--5--5--5--5--5--5-|--9--9--9--9--9--7--7--7--7--7-|
|--0--0--0--0--0--0--0--0--0--0-|--0--0--0--0--0--0--0--0--0--0-|
|--5--5--5--5--5--5--5--5--5--5-|--9--9--9--9--9--7--7--7--7--7-|
|-------------------------------|-------------------------------|
|
|  E  S  S  S  S  E  S  S  S  S    E  S  S  S  S  E  S  S  S  S
|-17-17-17-17-17-17-17-17-17-17-|-14-14-14-14-14-17-17-17-17-17-|
|-17-17-17-17-17-17-17-17-17-17-|-15-15-15-15-15-17-17-17-17-17-|
|-------------------------------|-------------------------------|
|-------------------------------|-------------------------------|
|-------------------------------|-------------------------------|
|-------------------------------|-------------------------------|


  G
   E  S  S  S  S  E  S  S  S  S
|--0--0--0--0--0--0--0--0--0--0--|
|--0--0--0--0--0--0--0--0--0--0--|
|--5--5--5--5--5--5--5--5--5--5--|
|--0--0--0--0--0--0--0--0--0--0--|
|--5--5--5--5--5--5--5--5--5--5--|
|--------------------------------|
|
|  E  S  S  S  S  E  S  S  S  S
|-19-19-19-19-19-19-19-19-19-19--|
|-19-19-19-19-19-19-19-19-19-19--|
|--------------------------------|
|--------------------------------|
|--------------------------------|
|--------------------------------|


  Bm             Asus4            G
   E  S  S  S  S  E  S  S  S  S    E  S  S  S  S  E  S  S  S  S
|--0--0--0--0--0--0--0--0--0--0-|--0--0--0--0--0--0--0--0--0--0-|
|--0--0--0--0--0--0--0--0--0--0-|--0--0--0--0--0--0--0--0--0--0-|
|--9--9--9--9--9--7--7--7--7--7-|--5--5--5--5--5--5--5--5--5--5-|
|--0--0--0--0--0--0--0--0--0--0-|--0--0--0--0--0--0--0--0--0--0-|
|--9--9--9--9--9--7--7--7--7--7-|--5--5--5--5--5--5--5--5--5--5-|
|-------------------------------|-------------------------------|
|
|  E  S  S  S  S  E  S  S  S  S    E  S  S  S  S  E  S  S  S  S
|-14-14-14-14-14-17-17-17-17-17-|-19-19-19-19-19-19-19-19-19-19-|
|-15-15-15-15-15-17-17-17-17-17-|-19-19-19-19-19-19-19-19-19-19-|
|-------------------------------|-------------------------------|
|-------------------------------|-------------------------------|
|-------------------------------|-------------------------------|
|-------------------------------|-------------------------------|


 Bridge
  Bm
   E      S  S  S  S  E      S  S  S  S
|--0------0--0--0--0--0------0--0--0--0-|
|--0------0--0--0--0--0------0--0--0--0-|
|--9------9--9--9--9-11-----11-11-11-11-|
|--0------0--0--0--0--0------0--0--0--0-|
|--9------9--9--9--9-11-----11-11-11-11-|
|---------------------------------------|
|
|  S   S  S  S  S  S  S   S  S  S  S  S
|-----22----22----22-----21----21----21-|
|-19-----19----19----17-----17----17----|
|---------------------------------------|
|---------------------------------------|
|---------------------------------------|
|---------------------------------------|
|
| Gtr III
|  Q.                 Q.
|---------------------------------------|
|---------------------------------------|
|--9-----------------11-----------------|
|---------------------------------------|
|---------------------------------------|
|---------------------------------------|


  D                                      Bm
   E      S  S  S  S  E     S  S  S  S    E      S  S  S  S  E      S  S  S  S
|--0------0--0--0--0--0-----0--0--0--0-|--0------0--0--0--0--0------0--0--0--0-|
|--0------0--0--0--0--0-----0--0--0--0-|--0------0--0--0--0--0------0--0--0--0-|
|-12-----12-12-12-12-12----12-12-12-12-|--9------9--9--9--9-11-----11-11-11-11-|
|--0------0--0--0--0--0-----0--0--0--0-|--0------0--0--0--0--0------0--0--0--0-|
|-12-----12-12-12-12-12----12-12-12-12-|--9------9--9--9--9-11-----11-11-11-11-|
|--------------------------------------|---------------------------------------|
|
|  S   S  S  S  S  S  S  S  S  S  S  S    S   S  S  S  S  S  S   S  S  S  S  S
|-----19----19----19----17----17----17-|-----22----22----22-----21----21----21-|
|-15-----15----15----14----14----14----|-19-----19----19----17-----17----17----|
|--------------------------------------|---------------------------------------|
|--------------------------------------|---------------------------------------|
|--------------------------------------|---------------------------------------|
|--------------------------------------|---------------------------------------|
|
|  H.                                     Q.                 Q.
|--------------------------------------|---------------------------------------|
|--------------------------------------|---------------------------------------|
|-12-----------------------------------|--9-----------------11-----------------|
|--------------------------------------|---------------------------------------|
|--------------------------------------|---------------------------------------|
|--------------------------------------|---------------------------------------|


  G
   E      S  S  S  S  E     S  S  S  S
|--0------0--0--0--0--0-----0--0--0--0-|
|--0------0--0--0--0--0-----0--0--0--0-|
|--5------5--5--5--5--5-----5--5--5--5-|
|--0------0--0--0--0--0-----0--0--0--0-|
|--5------5--5--5--5--5-----5--5--5--5-|
|--------------------------------------|
|
|  S   S  S  S  S  S  S  S  S  S  S  S
|-----19----19----19----17----17----17-|
|-15-----15----15----14----14----14----|
|--------------------------------------|
|--------------------------------------|
|--------------------------------------|
|--------------------------------------|
|
|  H.
|--------------------------------------|
|--------------------------------------|
|--------------------------------------|
|--5-----------------------------------|
|--------------------------------------|
|--------------------------------------|


  Bm                                      D
   E      S  S  S  S  E      S  S  S  S    E      S  S  S  S  E     S  S  S  S
|--0------0--0--0--0--0------0--0--0--0-|--0------0--0--0--0--0-----0--0--0--0-|
|--0------0--0--0--0--0------0--0--0--0-|--0------0--0--0--0--0-----0--0--0--0-|
|--9------9--9--9--9-11-----11-11-11-11-|-12-----12-12-12-12-12----12-12-12-12-|
|--0------0--0--0--0--0------0--0--0--0-|--0------0--0--0--0--0-----0--0--0--0-|
|--9------9--9--9--9-11-----11-11-11-11-|-12-----12-12-12-12-12----12-12-12-12-|
|---------------------------------------|--------------------------------------|
|
|  S   S  S  S  S  S  S   S  S  S  S  S    S   S  S  S  S  S  S  S  S  S  S  S
|-----22----22----22-----21----21----21-|-----19----19----19----17----17----17-|
|-19-----19----19----17-----17----17----|-15-----15----15----14----14----14----|
|---------------------------------------|--------------------------------------|
|---------------------------------------|--------------------------------------|
|---------------------------------------|--------------------------------------|
|---------------------------------------|--------------------------------------|
|
|  Q.                 Q.                   H.
|---------------------------------------|--------------------------------------|
|---------------------------------------|--------------------------------------|
|--9-----------------11-----------------|-12-----------------------------------|
|---------------------------------------|--------------------------------------|
|---------------------------------------|--------------------------------------|
|---------------------------------------|--------------------------------------|


  Bm                                      G
   E      S  S  S  S  E      S  S  S  S    E      S  S  S  S  E     S  S  S  S
|--0------0--0--0--0--0------0--0--0--0-|--0------0--0--0--0--0-----0--0--0--0-|
|--0------0--0--0--0--0------0--0--0--0-|--0------0--0--0--0--0-----0--0--0--0-|
|--9------9--9--9--9-11-----11-11-11-11-|--5------5--5--5--5--5-----5--5--5--5-|
|--0------0--0--0--0--0------0--0--0--0-|--0------0--0--0--0--0-----0--0--0--0-|
|--9------9--9--9--9-11-----11-11-11-11-|--5------5--5--5--5--5-----5--5--5--5-|
|---------------------------------------|--------------------------------------|
|
|  S   S  S  S  S  S  S   S  S  S  S  S    S   S  S  S  S  S  S  S  S  S  S  S
|-----22----22----22-----21----21----21-|-----19----19----19----17----17----17-|
|-19-----19----19----17-----17----17----|-15-----15----15----14----14----14----|
|---------------------------------------|--------------------------------------|
|---------------------------------------|--------------------------------------|
|---------------------------------------|--------------------------------------|
|---------------------------------------|--------------------------------------|
|
|  Q.                 Q.                   H.
|---------------------------------------|--------------------------------------|
|---------------------------------------|--------------------------------------|
|--9-----------------11-----------------|--------------------------------------|
|---------------------------------------|--5-----------------------------------|
|---------------------------------------|--------------------------------------|
|---------------------------------------|--------------------------------------|


 Interlude
  Bm
 4/4
   S  S  S  S E  S  S  S  S E  E  E
|--0--0--0--0----0--0--0--0----0--0-|
|--0--0--0--0----0--0--0--0----0--0-|
|--9--9--9--9---11-11-11-11---11-12-|
|--0--0--0--0----0--0--0--0----0--0-|
|--9--9--9--9---11-11-11-11---11-12-|
|-----------------------------------|
|
|  S  S  S  S E  S  S  S  S E  E  E
|-10-10-10-10---12-12-12-12---12-14-|
|-12-12-12-12---12-12-12-12---12-15-|
|-----------------------------------|
|-----------------------------------|
|-----------------------------------|
|-----------------------------------|
|
|  S  S  S  S E  S  S  S  S E  E  E
|-----------------------------------|
|--0--0--0--0---------------------0-|
|---------------11-11-11-11---11----|
|-----------------------------------|
|-----------------------------------|
|-----------------------------------|


  G
   E   S  S  +S   S  E  S  E    S  S  S  S S
|--0---0--0--(0)--0--0--0--0----0--0--0--0---|
|--0---0--0--(0)--0--0--0--0----0--0--0--0---|
|--5---5--5--(5)--5--5--5--5----5--5--5--5---|
|--0---0--0--(0)--0--0--0--0----0--0--0--0---|
|--5---5--5--(5)--5--5--5--5----5--5--5--5---|
|--------------------------------------------|
|
|  E   S  S  +S   S  E  S  E    S  S  S  S S
|-15--15-15-(15)-15-14-14-14---14-15-14------|
|---------------------------------------15---|
|--------------------------------------------|
|--------------------------------------------|
|--------------------------------------------|
|--------------------------------------------|
|
|  E.     S  +E      E  S  S E     S  S  E
|--------------------------------------------|
|--5------5--(5)-----4--4--4-4-----5--4--0---|
|--------------------------------------------|
|--------------------------------------------|
|--------------------------------------------|
|--------------------------------------------|


  Bm
   S  S  S  S E  S  S  S  S E  E  E
|--0--0--0--0----0--0--0--0----0--0-|
|--0--0--0--0----0--0--0--0----0--0-|
|--9--9--9--9---11-11-11-11---11-12-|
|--0--0--0--0----0--0--0--0----0--0-|
|--9--9--9--9---11-11-11-11---11-12-|
|-----------------------------------|
|
|  S  S  S  S E  S  S  S  S E  E  E
|-10-10-10-10---12-12-12-12---12-14-|
|-12-12-12-12---12-12-12-12---12-15-|
|-----------------------------------|
|-----------------------------------|
|-----------------------------------|
|-----------------------------------|
|
|  S  S  S  S E  S  S  S  S E  E  E
|-----------------------------------|
|-12-12-12-12---11-11-11-11---11-12-|
|-----------------------------------|
|-----------------------------------|
|-----------------------------------|
|-----------------------------------|


  G
   E   S  S  +S   S  E  S  E     S  S  S  S S
|--0---0--0--(0)--0--0--0--0-----0--0--0--0---|
|--0---0--0--(0)--0--0--0--0-----0--0--0--0---|
|--5---5--5--(5)--5--5--5--5-----5--5--5--5---|
|--0---0--0--(0)--0--0--0--0-----0--0--0--0---|
|--5---5--5--(5)--5--5--5--5-----5--5--5--5---|
|---------------------------------------------|
|
|  E   S  S  +S   S  E  S  E     S  S  S  S S
|-15--15-15-(15)-15-14-14-14----14-15-14------|
|----------------------------------------15---|
|---------------------------------------------|
|---------------------------------------------|
|---------------------------------------------|
|---------------------------------------------|
|
|  E.     S  +E      E  S  S  E     S  S  E
|---------------------------------------------|
|-17-----17-(17)----16-16-16-16----17-16-12---|
|---------------------------------------------|
|---------------------------------------------|
|---------------------------------------------|
|---------------------------------------------|


  Bm
   S  S  S  S E  S  S  S  S E  E  E
|--0--0--0--0----0--0--0--0----0--0-|
|--0--0--0--0----0--0--0--0----0--0-|
|--9--9--9--9---11-11-11-11---11-12-|
|--0--0--0--0----0--0--0--0----0--0-|
|--9--9--9--9---11-11-11-11---11-12-|
|-----------------------------------|
|
|  S  S  S  S E  S  S  S  S E  E  E
|-10-10-10-10---12-12-12-12---12-14-|
|-12-12-12-12---12-12-12-12---12-15-|
|-----------------------------------|
|-----------------------------------|
|-----------------------------------|
|-----------------------------------|
|
|  S  S  S  S E  S  S  S  S E  E  E
|-14-14-14-14---14-14-14-14---14-14-|
|-12-12-12-12---11-11-11-11---11-12-|
|-----------------------------------|
|-----------------------------------|
|-----------------------------------|
|-----------------------------------|


  G
   E   S  S  +S   S  E  S  E     S  S  S  S S
|--0---0--0--(0)--0--0--0--0-----0--0--0--0---|
|--0---0--0--(0)--0--0--0--0-----0--0--0--0---|
|--5---5--5--(5)--5--5--5--5-----5--5--5--5---|
|--0---0--0--(0)--0--0--0--0-----0--0--0--0---|
|--5---5--5--(5)--5--5--5--5-----5--5--5--5---|
|---------------------------------------------|
|
|  E   S  S  +S   S  E  S  E     S  S  S  S S
|-15--15-15-(15)-15-14-14-14----14-15-14------|
|----------------------------------------15---|
|---------------------------------------------|
|---------------------------------------------|
|---------------------------------------------|
|---------------------------------------------|
|
|  E.     S  +E      E  S  S  E     S  S  E
|---------------------------------------------|
|-17-----17-(17)----16-16-16-16----17-16-12---|
|---------------------------------------------|
|---------------------------------------------|
|---------------------------------------------|
|---------------------------------------------|

[ Tab from: http://www.guitartabs.cc/tabs/g/goo_goo_dolls/iris_tab_ver_9.html ]
  Bm
   S  S  S  S E  S  S  S  S E  E  E
|--0--0--0--0----0--0--0--0----0--0-||
|--0--0--0--0----0--0--0--0----0--0-||
|--9--9--9--9---11-11-11-11---11-12-||
|--0--0--0--0----0--0--0--0----0--0-||
|--9--9--9--9---11-11-11-11---11-12-||
|-----------------------------------||
|
|  S  S  S  S E  S  S  S  S E  E  E
|-10-10-10-10---12-12-12-12---12-14-||
|-12-12-12-12---12-12-12-12---12-15-||
|------------------------------2S===||
|-----------------------------------||
|-----------------------------------||
|-----------------------------------||
|  H                   Q       Q
|
|  S  S  S  S E  S  S  S  S E  E  E
|-14-14-14-14---19-19-19-19---19-19-||
|-12-12-12-12---11-11-11-11---11-12-||
|-----------------------------------||
|-----------------------------------||
|-----------------------------------||
|-----------------------------------||


 Guitar Solo
  G                           D/F#
  E S S +S  S E S E S E S S   E  S S +S  S E S E S E S S
|-0-0-0-(0)-0-0-0-0-0-0-0-0-|-0--0-0-(0)-0-0-0-0-0-0-0-0-|
|-0-0-0-(0)-0-0-0-0-0-0-0-0-|-0--0-0-(0)-0-0-0-0-0-0-0-0-|
|-5-5-5-(5)-5-5-5-5-5-5-5-5-|-4--4-4-(4)-4-4-4-4-4-4-4-4-|
|-0-0-0-(0)-0-0-0-0-0-0-0-0-|-0--0-0-(0)-0-0-0-0-0-0-0-0-|
|-5-5-5-(5)-5-5-5-5-5-5-5-5-|-4--4-4-(4)-4-4-4-4-4-4-4-4-|
|---------------------------|----------------------------|
|
| Gtr IV
| W                           H.                   Q
|---------------------------|----------------------------|
|---------------------------|----------------------------|
|-7-------------------------|-6\-------------------2S====|
|---------------------------|----------------------------|
|---------------------------|----------------------------|
|---------------------------|----------------------------|
|
| W                           W
|---------------------------|----------------------------|
|---------------------------|----------------------------|
|---------------------------|----------------------------|
|---------------------------|----------------------------|
|-5-------------------------|-4--------------------------|
|---------------------------|----------------------------|


  G
  E  S S +S  S E S E S  E S S
|-0--0-0-(0)-0-0-0-0-0--0-0-0-|
|-0--0-0-(0)-0-0-0-0-0--0-0-0-|
|-5--5-5-(5)-5-5-5-5-5--5-5-5-|
|-0--0-0-(0)-0-0-0-0-0--0-0-0-|
|-5--5-5-(5)-5-5-5-5-5--5-5-5-|
|-----------------------------|
|
| H.                    Q
|-----------------------------|
|-----------------------------|
|-7--------------------/9-----|
|-----------------------------|
|-----------------------------|
|-----------------------------|
|
| W
|-----------------------------|
|-----------------------------|
|-----------------------------|
|-----------------------------|
|-5---------------------------|
|-----------------------------|


  Bm                             G
    E  S S +S  S E S E S E S S   E  S S +S  S E S E S E S S
|---0--0-0-(0)-0-0-0-0-0-0-0-0-|-0--0-0-(0)-0-0-0-0-0-0-0-0-|
|---0--0-0-(0)-0-0-0-0-0-0-0-0-|-0--0-0-(0)-0-0-0-0-0-0-0-0-|
|---9--9-9-(9)-9-9-9-9-9-9-9-9-|-5--5-5-(5)-5-5-5-5-5-5-5-5-|
|---0--0-0-(0)-0-0-0-0-0-0-0-0-|-0--0-0-(0)-0-0-0-0-0-0-0-0-|
|---9--9-9-(9)-9-9-9-9-9-9-9-9-|-5--5-5-(5)-5-5-5-5-5-5-5-5-|
|------------------------------|----------------------------|
|
|   H.                   Q       H.                   Q
|------------------------------|----------------------------|
|------------------------------|----------------------------|
|-/11\-------------------2S====|=7--------------------7-----|
|------------------------------|----------------------------|
|------------------------------|----------------------------|
|------------------------------|----------------------------|
|
|   W                            W
|------------------------------|----------------------------|
|------------------------------|----------------------------|
|------------------------------|----------------------------|
|------------------------------|----------------------------|
|---9--------------------------|-5--------------------------|
|------------------------------|----------------------------|


  D/F#                          Bm
  E  S S +S  S E S E S E  S S    E  S S +S  S E S E S E  S S
|-0--0-0-(0)-0-0-0-0-0-0--0-0-|--0--0-0-(0)-0-0-0-0-0-0--0-0-|
|-0--0-0-(0)-0-0-0-0-0-0--0-0-|--0--0-0-(0)-0-0-0-0-0-0--0-0-|
|-4--4-4-(4)-4-4-4-4-4-4--4-4-|--9--9-9-(9)-9-9-9-9-9-9--9-9-|
|-0--0-0-(0)-0-0-0-0-0-0--0-0-|--0--0-0-(0)-0-0-0-0-0-0--0-0-|
|-4--4-4-(4)-4-4-4-4-4-4--4-4-|--9--9-9-(9)-9-9-9-9-9-9--9-9-|
|-----------------------------|------------------------------|
|
| H.                   Q         H.                   Q
|-----------------------------|------------------------------|
|-----------------------------|------------------------------|
|-6--------------------6\-----|-/4--------------------4/-----|
|-----------------------------|------------------------------|
|-----------------------------|------------------------------|
|-----------------------------|------------------------------|
|
| W                              W
|-----------------------------|------------------------------|
|-----------------------------|------------------------------|
|-----------------------------|------------------------------|
|-----------------------------|------------------------------|
|-4---------------------------|--9---------------------------|
|-----------------------------|------------------------------|


   E  S  S  +S  S  E   E      S S  S  S  S S
|--0--0--0--(0)-0--0---0------0-0--0--0--0-0--|
|--0--0--0--(0)-0--0---0------0-0--0--0--0-0--|
|--9--9--9--(9)-9--9---9------9-9--9--9--9-9--|
|--0--0--0--(0)-0--0---0------0-0--0--0--0-0--|
|--9--9--9--(9)-9--9---9------9-9--9--9--9-9--|
|---------------------------------------------|
|
|  E.    S  +E     E   S   E.      Q
|---------------------------------------------|
|-12----12-(12)---12--12--12\-----------------|
|----------------------------------2/---------|
|---------------------------------------------|
|---------------------------------------------|
|---------------------------------------------|
|
|  E.    S  +E     E  +S   E.      E     E
|---------------------------------------------|
|---------------------------------------------|
|---------------------------------------------|
|---------------------------------------------|
|--9----11-(11)---12-(12)-14------12----11----|
|---------------------------------------------|


  G                                 D/F#
  E  S S S S S S S S S S  S S S S     E  S S S S S S S S S S  S S S S
|-0--0-0-0-0-0-0-0-0-0-0--0-0-0-0-|---0--0-0-0-0-0-0-0-0-0-0--0-0-0-0-|
|-0--0-0-0-0-0-0-0-0-0-0--0-0-0-0-|---0--0-0-0-0-0-0-0-0-0-0--0-0-0-0-|
|-5--5-5-5-5-5-5-5-5-5-5--5-5-5-5-|---4--4-4-4-4-4-4-4-4-4-4--4-4-4-4-|
|-0--0-0-0-0-0-0-0-0-0-0--0-0-0-0-|---0--0-0-0-0-0-0-0-0-0-0--0-0-0-0-|
|-5--5-5-5-5-5-5-5-5-5-5--5-5-5-5-|---4--4-4-4-4-4-4-4-4-4-4--4-4-4-4-|
|---------------------------------|-----------------------------------|
|
| H.                      Q           H.                      Q
|---------------------------------|-----------------------------------|
|---------------------------------|--------------------------10S======|
|-7----------------------/9-------|-/11-------------------------------|
|---------------------------------|-----------------------------------|
|---------------------------------|-----------------------------------|
|---------------------------------|-----------------------------------|
|
| W                                   W
|---------------------------------|-----------------------------------|
|---------------------------------|-----------------------------------|
|-7-------------------------------|---7-------------------------------|
|---------------------------------|-----------------------------------|
|-5-------------------------------|---4-------------------------------|
|---------------------------------|-----------------------------------|


  Bm
   E  S S S S  S S  S  S S  S   S  S S S
|--0--0-0-0-0--0-0--0--0-0--0---0--0-0-0-|
|--0--0-0-0-0--0-0--0--0-0--0---0--0-0-0-|
|--9--9-9-9-9--9-9--9--9-9--9---9--9-9-9-|
|--0--0-0-0-0--0-0--0--0-0--0---0--0-0-0-|
|--9--9-9-9-9--9-9--9--9-9--9---9--9-9-9-|
|----------------------------------------|
|
|  Q.          E    E.      S  +E    E
|----------------------------------------|
|-14----------15S==14--------------------|
|--------------------------14-(14)---9---|
|----------------------------------------|
|----------------------------------------|
|----------------------------------------|
|
|  W
|----------------------------------------|
|----------------------------------------|
|--7-------------------------------------|
|----------------------------------------|
|--9-------------------------------------|
|----------------------------------------|


    E  S S  S  S S S  S  S  S S S S S S
|---0--0-0--0--0-0-0--0--0--0-0-0-0-0-0-||
|---0--0-0--0--0-0-0--0--0--0-0-0-0-0-0-||
|---9--9-9--9--9-9-9--9--9--9-9-9-9-9-9-||
|---0--0-0--0--0-0-0--0--0--0-0-0-0-0-0-||
|---9--9-9--9--9-9-9--9--9--9-9-9-9-9-9-||
|---------------------------------------||
|
|   W
|---------------------------------------||
|-/14-----------------------------------||
|---------------------------------------||
|---------------------------------------||
|---------------------------------------||
|---------------------------------------||
|
|   E.   S +E    E   +S  E.     E   E
|---------------------------------------||
|---------------------------------------||
|---------------------------------------||
|---9----7-(7)---5---(5)-4------2---0---||
|---------------------------------------||
|---------------------------------------||


 Breakdown
  Bm         D/C#         D                        Bm         D/C#
 6/8
  E  S S S S E S S S  S     E  S S S S E S S S S   E  S S S S  E  S S  S S
|------0---------0------|--------0---------0-----|------0-----------0------|
|----------0----------0-|------------0---------0-|----------0------------0-|
|--------0---------0----|----------0---------0---|--------0------------0---|
|----0---------0--------|------0---------0-------|----0-----------0--------|
|-----------------------|------------------------|-------------7-----------|
|-0----------2----------|---3----------3---------|-0-----------------------|
|
| Gtr II
| Q.         Q     S  S    +H.                     Q.          E  E    E
|--------------------12-|-(12)-------------------|---------------17--------|
|--------------------14-|-(14)-------------------|------------14------14---|
|-----------------------|------------------------|-------------------------|
|-----------------------|------------------------|-------------------------|
|-----------------------|------------------------|-------------------------|
|-----------------------|------------------------|-------------------------|


  G                         Bm         D/C#          D
   E S S  S S  E  S S S S   E  S S S S  E  S S S S    E  S S S S  E  S S  S S
|------0------------0-----|------0-----------0-----|-------0------0----0-------|
|-----------0-----------0-|----------0-----------0-|-----------0------------0--|
|---------0-----------0---|--------0-----------0---|---------0------------0----|
|----0------------0-------|----0-----------0-------|-----0-----------0---------|
|--5----------------------|------------------------|---------------------------|
|--------------0----------|-0-----------2----------|--3------------------------|
|
|  Q      E    Q.           W                         Q.          E  E    E
|--------17---------------|------------------------|----------------10---------|
|-14----------17----------|------------------------|---------------------------|
|-------------------------|------------------------|-------------12------12----|
|-------------------------|------------------------|---------------------------|
|-------------------------|------------------------|---------------------------|
|-------------------------|------------------------|---------------------------|
|
| Gtr III
|  W                        Q.          Q.            H.
|-------------------------|------------------------|---------------------------|
|-------------------------|------------------------|---------------------------|
|-------------------------|------------------------|---------------------------|
|-------------------------|------------------------|---------------------------|
|-------------------------|-9----------11----------|-12------------------------|
|-------------------------|------------------------|---------------------------|


                                      Chorus
  Bm          D/C#          G          Bm              Asus4
   E  S S S S  E  S S S S   H.          E   S  S  S  S  E   S  S  S  S
|-------0-----------0-----|-0-------||--0---0--0--0--0--0---0--0--0--0-|
|-----------0-----------0-|-0-------||--0---0--0--0--0--0---0--0--0--0-|
|---------0-----------0---|-0-------||--9---9--9--9--9--7---7--7--7--7-|
|-----0-----------0-------|-0-------||--0---0--0--0--0--0---0--0--0--0-|
|--------------7----------|-5-------||--9---9--9--9--9--7---7--7--7--7-|
|--0----------------------|---------||---------------------------------|
|
|  H.                       W           E   S  S  S  S  E   S  S  S  S
|-------------------------|---------||---------------------------------|
|-------------------------|---------||-15--15-15-15-15-14--14-14-14-14-|
|-11----------------------|---------||-16--16-16-16-16-14--14-14-14-14-|
|-------------------------|---------||---------------------------------|
|-------------------------|---------||---------------------------------|
|-------------------------|---------||---------------------------------|
|
|  Q.          Q.           H.          Q.              Q.
|-------------------------|---------||---------------------------------|
|-------------------------|---------||-12--------------11--------------|
|-------------------------|---------||---------------------------------|
|-------------------------|---------||---------------------------------|
|--9----------11----------|-5-------||--9---------------7--------------|
|-------------------------|---------||---------------------------------|
                                        Q.              Q.


  G
    E   S  S  S  S  E  S  S  S  S
|---0---0--0--0--0--0--0--0--0--0-|
|---0---0--0--0--0--0--0--0--0--0-|
|---5---5--5--5--5--5--5--5--5--5-|
|---0---0--0--0--0--0--0--0--0--0-|
|---5---5--5--5--5--5--5--5--5--5-|
|---------------------------------|
|
|   E   S  S  S  S  E  S  S  S  S
|------------------14-14-14-14-14-|
|--15--15-15-15-15-15-15-15-15-15-|
|--16--16-16-16-16----------------|
|---------------------------------|
|---------------------------------|
|---------------------------------|
|
|  +Q         E     E  E     E
|---------------------------------|
|-(11)--------9-----9--7----11----|
|---------------------------------|
|---------------------------------|
|---5-----------------------------|
|---------------------------------|
    H.


  Bm              Asus4             G
   E   S  S  S  S  E   S  S  S  S    E   S  S  S  S  E  S  S  S  S
|--0---0--0--0--0--0---0--0--0--0-|--0---0--0--0--0--0--0--0--0--0--|
|--0---0--0--0--0--0---0--0--0--0-|--0---0--0--0--0--0--0--0--0--0--|
|--9---9--9--9--9--7---7--7--7--7-|--5---5--5--5--5--5--5--5--5--5--|
|--0---0--0--0--0--0---0--0--0--0-|--0---0--0--0--0--0--0--0--0--0--|
|--9---9--9--9--9--7---7--7--7--7-|--5---5--5--5--5--5--5--5--5--5--|
|---------------------------------|---------------------------------|
|
|  E   S  S  S  S  E   S  S  S  S    E   S  S  S  S  E  S  S  S  S
|-14--14-14-14-14-15--15-15-15-15-|-17--17-17-17-17-17-17-17-17-17--|
|-15--15-15-15-15-15--15-15-15-15-|-17--17-17-17-17-17-17-17-17-17--|
|---------------------------------|---------------------------------|
|---------------------------------|---------------------------------|
|---------------------------------|---------------------------------|
|---------------------------------|---------------------------------|
|
|  Q.              Q         E       H.
|---------------------------------|---------------------------------|
|-12--------------11---------7----|--7------------------------------|
|---------------------------------|---------------------------------|
|---------------------------------|---------------------------------|
|--9---------------7--------------|--5------------------------------|
|---------------------------------|---------------------------------|
   Q.              Q.                H.


  Bm              Asus4
   E   S  S  S  S  E   S  S  S  S
|--0---0--0--0--0--0---0--0--0--0-|
|--0---0--0--0--0--0---0--0--0--0-|
|--9---9--9--9--9--7---7--7--7--7-|
|--0---0--0--0--0--0---0--0--0--0-|
|--9---9--9--9--9--7---7--7--7--7-|
|---------------------------------|
|
|  E   S  S  S  S  E   S  S  S  S
|-14--14-14-14-14-17--17-17-17-17-|
|-15--15-15-15-15-17--17-17-17-17-|
|---------------------------------|
|---------------------------------|
|---------------------------------|
|---------------------------------|
|
|  Q.              Q.
|---------------------------------|
|-12--------------11--------------|
|---------------------------------|
|---------------------------------|
|--9---------------7--------------|
|---------------------------------|
   Q.              Q.


  G                                  Bm              Asus4
    E   S  S  S  S  E   S  S  S  S    E   S  S  S  S  E   S  S  S  S
|---0---0--0--0--0--0---0--0--0--0-|--0---0--0--0--0--0---0--0--0--0--|
|---0---0--0--0--0--0---0--0--0--0-|--0---0--0--0--0--0---0--0--0--0--|
|---5---5--5--5--5--5---5--5--5--5-|--9---9--9--9--9--7---7--7--7--7--|
|---0---0--0--0--0--0---0--0--0--0-|--0---0--0--0--0--0---0--0--0--0--|
|---5---5--5--5--5--5---5--5--5--5-|--9---9--9--9--9--7---7--7--7--7--|
|----------------------------------|----------------------------------|
|
|   E   S  S  S  S  E   S  S  S  S    E   S  S  S  S  E   S  S  S  S
|--19--19-19-19-19-19--19-19-19-19-|-14--14-14-14-14-17--17-17-17-17--|
|--19--19-19-19-19-19--19-19-19-19-|-15--15-15-15-15-17--17-17-17-17--|
|----------------------------------|----------------------------------|
|----------------------------------|----------------------------------|
|----------------------------------|----------------------------------|
|----------------------------------|----------------------------------|
|
|  +Q         E    +E   Q             Q.              Q.
|----------------------------------|----------------------------------|
|-(11)--------9----(9)--7----------|--0---------------2---------------|
|----------------------------------|----------------------------------|
|----------------------------------|----------------------------------|
|---5------------------------------|--9---------------7---------------|
|----------------------------------|----------------------------------|
    H.                                Q.              Q.


  G
   E    S  S  S  S  E    S  S  S  S    E    S  S  S  S  E    S  S  S  S
|--0----0--0--0--0--0----0--0--0--0-|--0----0--0--0--0--0----0--0--0--0-||
|--0----0--0--0--0--0----0--0--0--0-|--0----0--0--0--0--0----0--0--0--0-||
|--5----5--5--5--5--5----5--5--5--5-|--5----5--5--5--5--5----5--5--5--5-||
|--0----0--0--0--0--0----0--0--0--0-|--0----0--0--0--0--0----0--0--0--0-||
|--5----5--5--5--5--5----5--5--5--5-|--5----5--5--5--5--5----5--5--5--5-||
|-----------------------------------|-----------------------------------||
|
|  E    S  S  S  S  E    S  S  S  S    E    S  S  S  S  E    S  S  S  S
|-19---19-19-19-19-19---19-19-19-19-|-19---19-19-19-19-19---19-19-19-19-||
|-19---19-19-19-19-19---19-19-19-19-|-19---19-19-19-19-19---19-19-19-19-||
|-----------------------------------|-----------------------------------||
|-----------------------------------|-----------------------------------||
|-----------------------------------|-----------------------------------||
|-----------------------------------|-----------------------------------||
|
|  S S  S  S  S  S  S S  S  S  S  S    S S  S  S  S  S  S S  S  S  S  S
|--2----2--2--2--2--2----2--2--2--2-|--7----7--7--7--7-11---11-11-11-11-||
|--0----0--0--0--0--0----0--0--0--0-|--4----4--4--4--4--7----7--7--7--7-||
|-----------------------------------|-----------------------------------||
|--5----5--5--5--5--5----5--5--5--5-|--5----5--5--5--5--5----5--5--5--5-||
|-----------------------------------|-----------------------------------||
|-----------------------------------|-----------------------------------||
   S S  S  S  S  S  S S  S  S  S  S    S S  S  S  S  S  S S  S  S  S  S


 Outro Chorus
  Bm              Asus4
   E   S  S  S  S  E   S  S  S  S
|--0---0--0--0--0--0---0--0--0--0-|
|--0---0--0--0--0--0---0--0--0--0-|
|--9---9--9--9--9--7---7--7--7--7-|
|--0---0--0--0--0--0---0--0--0--0-|
|--9---9--9--9--9--7---7--7--7--7-|
|---------------------------------|
|
|  E   S  S  S  S  E   S  S  S  S
|---------------------------------|
|-15--15-15-15-15-14--14-14-14-14-|
|-16--16-16-16-16-14--14-14-14-14-|
|---------------------------------|
|---------------------------------|
|---------------------------------|
|
|  Q.              Q.
|---------------------------------|
|-12--------------14--------------|
|---------------------------------|
|---------------------------------|
|--9--------------14--------------|
|---------------------------------|
   Q.              Q.


  G                                  Bm              Asus4
    E   S  S  S  S  E   S  S  S  S    E   S  S  S  S  E   S  S  S  S
|---0---0--0--0--0--0---0--0--0--0-|--0---0--0--0--0--0---0--0--0--0--|
|---0---0--0--0--0--0---0--0--0--0-|--0---0--0--0--0--0---0--0--0--0--|
|---5---5--5--5--5--5---5--5--5--5-|--9---9--9--9--9--7---7--7--7--7--|
|---0---0--0--0--0--0---0--0--0--0-|--0---0--0--0--0--0---0--0--0--0--|
|---5---5--5--5--5--5---5--5--5--5-|--9---9--9--9--9--7---7--7--7--7--|
|----------------------------------|----------------------------------|
|
|   E   S  S  S  S  E   S  S  S  S    E   S  S  S  S  E   S  S  S  S
|------------------14--14-14-14-14-|-14--14-14-14-14-15--15-15-15-15--|
|--15--15-15-15-15-15--15-15-15-15-|-15--15-15-15-15-15--15-15-15-15--|
|--16--16-16-16-16-----------------|----------------------------------|
|----------------------------------|----------------------------------|
|----------------------------------|----------------------------------|
|----------------------------------|----------------------------------|
|
|  +H.                                Q.              Q.
|----------------------------------|----------------------------------|
|-(14)-----------------------------|-12--------------14---------------|
|----------------------------------|----------------------------------|
|--11---------9----(9)--7----11----|-12--------------11---------7-----|
|----------------------------------|----------------------------------|
|----------------------------------|----------------------------------|
    Q         E    +E   E     E       Q.              Q         E


  G                                 Bm              Asus4
    E   S  S  S  S  E  S  S  S  S    E   S  S  S  S  E   S  S  S  S
|---0---0--0--0--0--0--0--0--0--0-|--0---0--0--0--0--0---0--0--0--0-|
|---0---0--0--0--0--0--0--0--0--0-|--0---0--0--0--0--0---0--0--0--0-|
|---5---5--5--5--5--5--5--5--5--5-|--9---9--9--9--9--7---7--7--7--7-|
|---0---0--0--0--0--0--0--0--0--0-|--0---0--0--0--0--0---0--0--0--0-|
|---5---5--5--5--5--5--5--5--5--5-|--9---9--9--9--9--7---7--7--7--7-|
|---------------------------------|---------------------------------|
|
|   E   S  S  S  S  E  S  S  S  S    E   S  S  S  S  E   S  S  S  S
|--17--17-17-17-17-17-17-17-17-17-|-14--14-14-14-14-17--17-17-17-17-|
|--17--17-17-17-17-17-17-17-17-17-|-15--15-15-15-15-17--17-17-17-17-|
|---------------------------------|---------------------------------|
|---------------------------------|---------------------------------|
|---------------------------------|---------------------------------|
|---------------------------------|---------------------------------|
|
|  +H.                               Q.              Q.
|---------------------------------|---------------------------------|
|-(14)----------------------------|-12--------------14--------------|
|---------------------------------|---------------------------------|
|---7-----------------------------|-12--------------11--------------|
|---------------------------------|---------------------------------|
|---------------------------------|---------------------------------|
    H.                               Q.              Q.


  G
    E   S  S  S  S  E      S  S  S  S
|---0---0--0--0--0--0------0--0--0--0-|
|---0---0--0--0--0--0------0--0--0--0-|
|---5---5--5--5--5--5------5--5--5--5-|
|---0---0--0--0--0--0------0--0--0--0-|
|---5---5--5--5--5--5------5--5--5--5-|
|-------------------------------------|
|
|   E   S  S  S  S  S   S  S  S  S  S
|--19--19-19-19-19-19--19-19-19-19-19-|
|--19--19-19-19-19-19--19-19-19-19-19-|
|-------------------------------------|
|-------------------------------------|
|-------------------------------------|
|-------------------------------------|
|
|  +H.
|-------------------------------------|
|-(14)--------------------------------|
|-------------------------------------|
|-(11)--------9----(9)-----7----11----|
|-------------------------------------|
|-------------------------------------|
   +Q         E    +E      E     E


  Bm              Asus4            G
   E   S  S  S  S  E  S  S  S  S    E   S  S  S  S  E   S  S  S  S
|--0---0--0--0--0--0--0--0--0--0-|--0---0--0--0--0--0---0--0--0--0-|
|--0---0--0--0--0--0--0--0--0--0-|--0---0--0--0--0--0---0--0--0--0-|
|--9---9--9--9--9--7--7--7--7--7-|--5---5--5--5--5--5---5--5--5--5-|
|--0---0--0--0--0--0--0--0--0--0-|--0---0--0--0--0--0---0--0--0--0-|
|--9---9--9--9--9--7--7--7--7--7-|--5---5--5--5--5--5---5--5--5--5-|
|--------------------------------|---------------------------------|
|
|  E   S  S  S  S  E  S  S  S  S    E   S  S  S  S  E   S  S  S  S
|-14--14-14-14-14-17-17-17-17-17-|-19--19-19-19-19-19--19-19-19-19-|
|-15--15-15-15-15-17-17-17-17-17-|-19--19-19-19-19-19--19-19-19-19-|
|--------------------------------|---------------------------------|
|--------------------------------|---------------------------------|
|--------------------------------|---------------------------------|
|--------------------------------|---------------------------------|
|
|  H.                               Q         E    +Q         E
|--4-----------------------------|--4---------5----(5)--------7----|
|--0-----------------------------|---------------------------------|
|--------------------------------|--5------------------------------|
|--------------------------------|---------------------------------|
|--------------------------------|---------------------------------|
|--------------------------------|---------------------------------|
   H.                               H.


  Bm              Asus4
   E   S  S  S  S  E   S  S  S  S
|--0---0--0--0--0--0---0--0--0--0--|
|--0---0--0--0--0--0---0--0--0--0--|
|--9---9--9--9--9--7---7--7--7--7--|
|--0---0--0--0--0--0---0--0--0--0--|
|--9---9--9--9--9--7---7--7--7--7--|
|----------------------------------|
|
|  E   S  S  S  S  E   S  S  S  S
|-14--14-14-14-14-17--17-17-17-17--|
|-15--15-15-15-15-17--17-17-17-17--|
|----------------------------------|
|----------------------------------|
|----------------------------------|
|----------------------------------|
|
| +H.
|-(7)------------------------------|
|----------------------------------|
|----------------------------------|
|----------------------------------|
|--9--------------11---------------|
|----------------------------------|
   Q.              Q.


  G                                    Bm              Asus4
   E   S  S  S   S  E   S  S   S   S    E   S  S  S  S  E   S  S  S  S
|--0---0--0--0---0--0---0--0---0---0-|--0---0--0--0--0--0---0--0--0--0-|
|--0---0--0--0---0--0---0--0---0---0-|--0---0--0--0--0--0---0--0--0--0-|
|--5---5--5--5---5--5---5--5---5---5-|--9---9--9--9--9--7---7--7--7--7-|
|--0---0--0--0---0--0---0--0---0---0-|--0---0--0--0--0--0---0--0--0--0-|
|--5---5--5--5---5--5---5--5---5---5-|--9---9--9--9--9--7---7--7--7--7-|
|------------------------------------|---------------------------------|
|
|  E   S  S  S   S  E   S  S   S   S    E   S  S  S  S  E   S  S  S  S
|-19--19-19-19--19-19--19-19--19--19-|-14--14-14-14-14-17--17-17-17-17-|
|-19--19-19-19--19-19--19-19--19--19-|-15--15-15-15-15-17--17-17-17-17-|
|------------------------------------|---------------------------------|
|------------------------------------|---------------------------------|
|------------------------------------|---------------------------------|
|------------------------------------|---------------------------------|
|
|  E.     S +E      E.     S  +E        H.
|------------------------------------|---------------------------------|
|--7------9-(9)-----9-----11-(11)----|-11------------------------------|
|------------------------------------|---------------------------------|
|------------------------------------|---------------------------------|
|--5---------------------------------|--9--------------11--------------|
|------------------------------------|---------------------------------|
   H.                                   Q.              Q.


  G
   E   S  S   S   S  E   S  S   S   S
|--0---0--0---0---0--0---0--0---0---0--|
|--0---0--0---0---0--0---0--0---0---0--|
|--5---5--5---5---5--5---5--5---5---5--|
|--0---0--0---0---0--0---0--0---0---0--|
|--5---5--5---5---5--5---5--5---5---5--|
|--------------------------------------|
|
|  E   S  S   S   S  E   S  S   S   S
|-19--19-19--19--19-19--19-19--19--19--|
|-19--19-19--19--19-19--19-19--19--19--|
|--------------------------------------|
|--------------------------------------|
|--------------------------------------|
|--------------------------------------|
|
|  E.     S  +E      E.     S  +E
|--------------------------------------|
|-11-----12-(12)----14-----16-(16)-----|
|--------------------------------------|
|--------------------------------------|
|--5-----------------------------------|
|--------------------------------------|
   H.


  Bm              Asus4
   E   S  S  S  S  E   S  S  S  S
|--0---0--0--0--0--0---0--0--0--0-||
|--0---0--0--0--0--0---0--0--0--0-||
|--9---9--9--9--9--7---7--7--7--7-||
|--0---0--0--0--0--0---0--0--0--0-||
|--9---9--9--9--9--7---7--7--7--7-||
|---------------------------------||
|
|  E   S  S  S  S  E   S  S  S  S
|-14--14-14-14-14-17--17-17-17-17-||
|-15--15-15-15-15-17--17-17-17-17-||
|---------------------------------||
|---------------------------------||
|---------------------------------||
|---------------------------------||
|
|  H.
|-19------------------------------||
|---------------------------------||
|---------------------------------||
|---------------------------------||
|--9--------------11--------------||
|---------------------------------||
   Q.              Q.


 Outro
  Bm          D/C#             D
   E  S S S S  E  S  S  S  S    E   S  S  S  S  E   S  S  S  S
|--0--0-0-0-0--0--0--0--0--0-|--0---0--0--0--0--0---0--0--0--0--|
|--0--0-0-0-0--0--0--0--0--0-|--0---0--0--0--0--0---0--0--0--0--|
|--9--9-9-9-9-11-11-11-11-11-|-12--12-12-12-12-12--12-12-12-12--|
|--0--0-0-0-0--0--0--0--0--0-|--0---0--0--0--0--0---0--0--0--0--|
|--9--9-9-9-9-11-11-11-11-11-|-12--12-12-12-12-12--12-12-12-12--|
|----------------------------|----------------------------------|
|
|  H.                           Q.              E.     S  E
|-19-------------------------|------------------------14--------|
|-19-------------------------|---------------------------15-----|
|----------------------------|----------------------------------|
|----------------------------|----------------------------------|
|----------------------------|----------------------------------|
|----------------------------|----------------------------------|
|
|  H.                          +H.
|----------------------------|----------------------------------|
|----------------------------|----------------------------------|
|----------------------------|----------------------------------|
|--7-------------------------|-(7)------------------------------|
|----------------------------|----------------------------------|
|----------------------------|----------------------------------|


  Bm          Asus4        G
   E  S S S S E  S S S S    E     S  S  S S  E  S S S S
|--0--0-0-0-0-0--0-0-0-0-|--0-----0--0--0-0--0--0-0-0-0-|
|--0--0-0-0-0-0--0-0-0-0-|--0-----0--0--0-0--0--0-0-0-0-|
|--9--9-9-9-9-7--7-7-7-7-|--5-----5--5--5-5--5--5-5-5-5-|
|--0--0-0-0-0-0--0-0-0-0-|--0-----0--0--0-0--0--0-0-0-0-|
|--9--9-9-9-9-7--7-7-7-7-|--5-----5--5--5-5--5--5-5-5-5-|
|------------------------|------------------------------|
|
|  Q.         Q.            S  S  S  S  E    E  Q
|-14---------------------|----12----12------------------|
|-15---------------------|-14----14----14---15-14-------|
|------------------------|------------------------------|
|------------------------|------------------------------|
|------------------------|------------------------------|
|------------------------|------------------------------|


  Bm           D/C#
  E  S  S  S S   E   S  S  S  S
|-0--0--0--0-0---0---0--0--0--0-|
|-0--0--0--0-0---0---0--0--0--0-|
|-9--9--9--9-9--11--11-11-11-11-|
|-0--0--0--0-0---0---0--0--0--0-|
|-9--9--9--9-9--11--11-11-11-11-|
|-------------------------------|
|
| E.    S  E    +Q.
|------17-----------------------|
|------15-15---(15)-------------|
|-------------------------------|
|-------------------------------|
|-------------------------------|
|-------------------------------|


  D
   E  S  S  S  S  E  S  S  S  S
|--0--0--0--0--0--0--0--0--0--0-|
|--0--0--0--0--0--0--0--0--0--0-|
|-12-12-12-12-12-12-12-12-12-12-|
|--0--0--0--0--0--0--0--0--0--0-|
|-12-12-12-12-12-12-12-12-12-12-|
|-------------------------------|
|
|  Q        E     E  Q
|-------------------14----------|
|----------15----17-------------|
|-------------------------------|
|-------------------------------|
|-------------------------------|
|-------------------------------|


  Bm          Asus4         G
  E  S S  S S  E  S S S S    E  S S S S  E  S S S S
|-0--0-0--0-0--0--0-0-0-0-|--0--0-0-0-0--0--0-0-0-0--|
|-0--0-0--0-0--0--0-0-0-0-|--0--0-0-0-0--0--0-0-0-0--|
|-9--9-9--9-9--7--7-7-7-7-|--5--5-5-5-5--5--5-5-5-5--|
|-0--0-0--0-0--0--0-0-0-0-|--0--0-0-0-0--0--0-0-0-0--|
|-9--9-9--9-9--7--7-7-7-7-|--5--5-5-5-5--5--5-5-5-5--|
|-------------------------|--------------------------|
|
| E  E    E    E  Q          Q.          Q.
|---17---19---19s21-------|-21----------22-----------|
|-------------------------|-17----------19-----------|
|-------------------------|--------------------------|
|-------------------------|--------------------------|
|-------------------------|--------------------------|
|-------------------------|--------------------------|


  Bm         D/C#             D
  E S S  S S  E  S  S  S  S    E   S  S  S  S  E   S  S  S  S
|-0-0-0--0-0--0--0--0--0--0-|--0---0--0--0--0--0---0--0--0--0-*|
|-0-0-0--0-0--0--0--0--0--0-|--0---0--0--0--0--0---0--0--0--0-*|
|-9-9-9--9-9-11-11-11-11-11-|-12--12-12-12-12-12--12-12-12-12-*|
|-0-0-0--0-0--0--0--0--0--0-|--0---0--0--0--0--0---0--0--0--0-*|
|-9-9-9--9-9-11-11-11-11-11-|-12--12-12-12-12-12--12-12-12-12-*|
|---------------------------|---------------------------------*|
|
| Q      E    Q        S  S    Q.              Q.
|-------17---17-------21-21-|-21------------------------------*|
|---------------------------|-22--------------22--------------*|
|---------------------------|---------------------------------*|
|---------------------------|---------------------------------*|
|---------------------------|---------------------------------*|
|---------------------------|---------------------------------*|



Duration Legend
---------------
W - whole; H - half; Q - quarter; E - 8th; S - 16th; T - 32nd; X - 64th; a - acciaccatura
+ - note tied to previous; . - note dotted; .. - note double dotted
Uncapitalized letters represent notes that are staccato (1/2 duration)
Irregular groupings are notated above the duration line
Duration letters will always appear directly above the note/fret number it represents the
duration for.  Duration letters with no fret number below them represent rests.  Multi-
bar rests are notated in the form Wxn, where n is the number of bars to rest for.  Low
melody durations appear below the staff

Tablature Legend
----------------
 h   - hammer-on
 p   - pull-off
 b   - bend
 pb  - pre-bend
 r   - bend release (if no number after the r, then release immediately)
 /\  - slide into or out of (from/to "nowhere")
 s   - legato slide
 S   - shift slide
 - natural harmonic
[n]  - artificial harmonic
n(n) - tapped harmonic
 ~   - vibrato
 tr  - trill
 T   - tap
 TP  - trem. picking
 PM  - palm muting
\n/  - tremolo bar dip; n = amount to dip
 \n  - tremolo bar down
 n/  - tremolo bar up
/n\  - tremolo bar inverted dip
 =   - hold bend; also acts as connecting device for hammers/pulls
 <> - volume swell (louder/softer)
 x   - on rhythm slash represents muted slash
 o   - on rhythm slash represents single note slash

Misc Legend
-----------
 |  - bar
||  - double bar
||o - repeat start
o|| - repeat end
*|  - double bar (ending)
 :  - bar (freetime)
 $  - Segno
 &  - Coda
Tempo markers -  = BPM(8/16=s8/s16), where s8 = swing 8ths, s16 = swing 16ths


** Generated using Power Tab Editor by Brad Larsen: The Official Power Tab Web Site
Comments