Goo Goo Dolls - Iris Chords & Tabs

 

Iris Chords & Tabs

Goo Goo Dolls Chords & Tabs

Version: 8 Type: Tab 0 ratings
1 star 2 stars 3 stars 4 stars 5 stars
comments

Iris Tab

Artist:Goo Goo Dolls
Song:Iris
Tuning:STANDARD!!!! YAY!!!
Tabbed by: Brian "the man" Clay.

This tab sounds very very accurate. Its way better than the other ones,
i guarantee that.  Please play it before rating it. Thanks. Enjoy.

Intro:(the strumming is not exact but you can figure it out)
E---------------------------------------------
B--0--0-0-0--0--0-0-0---0--0-0-0--0--0-0-0----
G--7--7-7-7--6--6-6-6---4--4-4-4--2--2-2-2----2X's
D--0--0-0-0--0--0-0-0---0--0-0-0--0--0-0-0----
A--0--0-0-0--0--0-0-0---0--0-0-0--0--0-0-0----
E--7--7-7-7--7--7-7-7---3--3-3-3--3--3-3-3----

Verse 1:
Play the verse in Drop B tuning.

-----0---------0---------0----------0--------
-------0---------0---------0----------0------
---------0---------0---------0----------0----
---------------------------------------------
------------0---------------------5----------
--3-------------------8----------------------
"And I'd give up forever to touch you"

-----0---------0----------0----------0-------
-------0---------0----------0----------0-----
---------0---------0----------0----------0---
---------------------------------------------
-------------5---------------------5---------
-12--------------------8---------------------
"Cause I know that you feel me somehow"

Repeat that through the verses.


Chorus:

E---------------------------------------------------------------
B-0-----0---0---0---0-----0---0---0---0-----0--0--0--0----0--0--
G-0-----0---0---0---0-----0---0---0---0-----0--0--0--0----0--0--4X's
D-12----12--12--12--12----x---x---x---x-----8--8--8--8----8--8--
A-x-----x---x---x---x-----x---x---x---x-----x--x--x--x----x--x--
E-12----12--12--12--12----10--10--10--10----8--8--8--8----8--8--
"And I don't want the world to see me"
(play the same thing for "Cause I dont think that they'd understand")
[ Tab from: http://www.guitartabs.cc/tabs/g/goo_goo_dolls/iris_tab_ver_8.html ]
Then play:
E---------------------------------------------
B--0--0-0-0--0--0-0-0---0--0-0-0--0--0-0-0----
G--7--7-7-7--6--6-6-6---4--4-4-4--2--2-2-2----2X's
D--0--0-0-0--0--0-0-0---0--0-0-0--0--0-0-0----
A--0--0-0-0--0--0-0-0---0--0-0-0--0--0-0-0----
E--7--7-7-7--7--7-7-7---3--3-3-3--3--3-3-3----

Verse 2 is the same as the first Verse 1.

The guitar solo is just variations of the Chorus.

Then comes a PreChorus:

E----0-----------0-----------0---------
B-------0-----------0-----------0------
G----------0-----------0-----------0---
D--------------------------------------
A--------------------------------------
E--12----------14----------15----------

E----0-----------0-----------0---------
B-------0-----------0-----------0------
G----------0-----------0-----------0---
D--------------------------------------
A--------------5-----------------------
E--12--------------------8-------------

Then comes another chorus (same as above).

Outro:
E-----------------------------------------------------------
B--0-----0--0--0--0--0-----0--0--0--0--0-----0--0--0--0--0--
G--0-----0--0--0--0--0-----0--0--0--0--0-----0--0--0--0--0--
D--12----12-12-12-12-14----14-14-14-14-14----15-15-15-15-15-
A--x-----x--x--x--x--x-----x--x--x--x--x-----x--x--x--x--x--
E--12----12-12-12-12-14----14-14-14-14-15----15-15-15-15-15-

E-----------------------------------------------------------
B--0-----0--0--0--0--0-----0--0--0--0--0-----0--0--0--0--0--
G--0-----0--0--0--0--0-----0--0--0--0--0-----0--0--0--0--0--
D--12----12-12-12-12-10----10-10-10-10-8-----8--8--8--8--8--
A--x-----x--x--x--x--x-----x--x--x--x--x-----x--x--x--x--x--
E--12----12-12-12-12-10----10-10-10-10-8-----8--8--8--8--8--

E----0-----------0-----------0---------
B-------0-----------0-----------0------
G----------0-----------0-----------0---
D--------------------------------------
A--------------------------------------
E--12----------14----------15----------

E----0-----------0-----------0---------
B-------0-----------0-----------0------
G----------0-----------0-----------0---
D--------------------------------------
A--------------5-----------------------
E--12--------------------8-------------

Please play this before rating. I'm sure its very accurate. 

Slickmonky2345@hotmail.com
Comments