Goo Goo Dolls - Iris Chords & Tabs

 

Iris Chords & Tabs

Goo Goo Dolls Chords & Tabs

Version: 4 Type: Tab 0 ratings
1 star 2 stars 3 stars 4 stars 5 stars
comments

Iris Tab

   
Song: Iris
Artist: The Goo Goo Dolls
Album: Dizzy Up the Girl
Tabbed by: Tyler H.

Tuning:
 D
 D (Tune it up to D)
 D (Tune this one down)
 D
 D (Tune this one down also)
 B (Yeah, I know it's probably all boingy but this is how it goes)

For my acoustic I usually tab it lower to CCCCCA and it sounds pretty much the 
same. Ok, All those other tabs just sicken me. They are't even close at all and they 
suck completly so I sat down and wrote the correct tab for you. Its a good song and 
I hope you enjoy it. Guys,... girls like this song, I know my woman does.


Intro:
 D|--0----0---0---0---0---0-----0---0-------0---0--0----0----0-|
 D|--0----0---0---0---0---0-----0---0-------0---0--0----4----4-|
 D|--0----0---0---0---0---0-----0---0-------0---0--0----0----0-|
 D|--12---12--12--12--12--11----11--11----11/12-0--0----5----5-|
 D|------------------------------------------------------------|
 B|------------------------------------------------------------|

 D|-0--0--0--0---0--0----0--0--0--0-|
 D|-4--4--4--2---2--2----2--2--0--0-|
 D|-0--0--0--0---0--0----0--0--0--0-|   Play Twice
 D|-5--5--5--4---4--4----4--4--0--0-|
 D|---------------------------------|
 B|---------------------------------|


Verse:
 D|-----0--------0--------0----------0-----|
 D|-------0--------0--------0----------0---|
 D|---------0--------0--------0----------0-|
 D|-------------------------------0--------|
 D|----------------------------------------|
 B|-3----------5--------8------------------|
(And I'd give up forever to touch you)

 D|-----0---------0----------0----------0-----|
 D|-------0---------0----------0----------0---|
 D|---------0---------0----------0----------0-|
 D|----------------------------------0--------|
 D|-------------------------------------------|
 B|-12----------10----------8-----------------|
('Cause I know that you feel me somehow)


Chorus:
(Several variations of this repeat 4 times)
 D|-0-----0---0---0---0-----0---0---0---0-----0--0--0--0----0--0--|
 D|-0-----0---0---0---0-----0---0---0---0-----0--0--0--0----0--0--|
 D|-0-----0---0---0---0-----0---0---0---0-----0--0--0--0----0--0--|
 D|-0-----0---0---0---0-----0---0---0---0-----0--0--0--0----0--0--|
 D|-x-----x---x---x---x-----x---x---x---x-----x--x--x--x----x--x--|
 B|-12----12--12--12--12----10--10--10--10----8--8--8--8----8--8--|
(And I don't want the world to see me)


Interlude:
 D|--0----0---0---0---0---0-----0---0-------0---0--0----0----0-|
 D|--0----0---0---0---0---0-----0---0-------0---0--0----4----4-|
 D|--0----0---0---0---0---0-----0---0-------0---0--0----0----0-|
 D|--12---12--12--12--12--11----11--11----11/12-0--0----5----5-|
 D|------------------------------------------------------------|
 B|------------------------------------------------------------|

 D|-0--0--0--0---0--0----0--0--0--0-|
 D|-4--4--4--2---2--2----2--2--0--0-|
 D|-0--0--0--0---0--0----0--0--0--0-|   Play Twice
 D|-5--5--5--4---4--4----4--4--0--0-|
 D|---------------------------------|
 B|---------------------------------|


Verse 2:
 D|-----0--------0--------0----------0-----|
 D|-------0--------0--------0----------0---|
 D|---------0--------0--------0----------0-|
 D|-------------------------------0--------|
 D|----------------------------------------|
 B|-3----------5--------8------------------|
(And you can't fight the tears that ain't comin')

 D|-----0---------0----------0----------0-----|
 D|-------0---------0----------0----------0---|
 D|---------0---------0----------0----------0-|
 D|----------------------------------0--------|
 D|-------------------------------------------|
 B|-12----------10----------8-----------------|
(Or the moment of truth in your lies)

Chorus:
(Repeat 4 times)
 D|-0-----0---0---0---0-----0---0---0---0-----0--0--0--0----0--0--|
 D|-0-----0---0---0---0-----0---0---0---0-----0--0--0--0----0--0--|
 D|-0-----0---0---0---0-----0---0---0---0-----0--0--0--0----0--0--|
 D|-0-----0---0---0---0-----0---0---0---0-----0--0--0--0----0--0--|
 D|-x-----x---x---x---x-----x---x---x---x-----x--x--x--x----x--x--|
 B|-12----12--12--12--12----10--10--10--10----8--8--8--8----8--8--|
 (And I don't want the world to see me)


Interlude Two: 
(Play twice)
 D|--------0-----0-----0-----0----------0-----0---0-----0-|
 D|-----------0-----------0----------------0---------0----|
 D|-------------------------------------------------------|
 D|-------------------------------------------------------|
 D|-------------------------------------------------------|
 B|---12-------------14-------------15--------------------|

 D|--------0-----0-----0-----0---------0-----0-------------|
 D|-----------0-----------0---------------0----------------|
 D|--------------------------------------------0------0----|
 D|------------------------------------------------0-----0-|
 D|--------------------------------------------------------|
 B|---12-------------10-------------8----------------------|


Guitar Solo:
 D|-0--0--0--0-----0--0--0--0-----0--0---0---0-0-0-0--0-0-0-0-|
 D|-0--0--0--0-----0--0--0--0-----0--0---0---0-0-0-0--0-0-0-0-|
 D|-0--0--0--0-----0--0--0--0-----0--0---0---0-0-0-0--0-0-0-0-|
 D|-0--0--0--0-----0--0--0--0-----0--0---0---0-0-0-0--0-0-0-0-| x4
 D|-x--x--x--x-----x--x--x--x-----x--x---x---x-x-x-x--x-x-x-x-|
 B|-12-12-12-12----14-14-14-14----14-15--8---8-8-8-8--8-8-8-8-|

 D|-0--0--0--0-----0--0--0--0-----0--0---0---0-0-0-0-0-0-0-0-|
 D|-0--0--0--0-----0--0--0--0-----0--0---0---0-0-0-0-0-0-0-0-|
 D|-0--0--0--0-----0--0--0--0-----0--0---0---0-0-0-0-0-0-0-0-|
 D|-0--0--0--0-----0--0--0--0-----0--0---0---0-0-0-0-0-0-0-0-| 
 D|-x--x--x--x-----x--x--x--x-----x--x---x---x-x-x-x-x-x-x-x-|
 B|-12-12-12-12----14-14-14-14----14-15--8---8-8-8-8-8-8-8-8-|

 D|-0-0-0-0-0-0-0-0-0-0-0-0-0-0-0-0-0-0-0-0-0-0-0-0-0-0-0-0-0-|
 D|-0-0-0-0-0-0-0-0-0-0-0-0-0-0-0-0-0-0-0-0-0-0-0-0-0-0-0-0-0-|
 D|-0-0-0-0-0-0-0-0-0-0-0-0-0-0-0-0-0-0-0-0-0-0-0-0-0-0-0-0-0-|
 D|-0-0-0-0-0-0-0-0-0-0-0-0-0-0-0-0-0-0-0-0-0-0-0-0-0-0-0-0-0-|
 D|-x-x-x-x-x-x-x-x-x-x-x-x-x-x-x-x-x-x-x-x-x-x-x-x-x-x-x-x-x-|
 B|-7-7-7-7-7-7-7-7-7-7-7-7-7-7-8-8-8-8-8-8-8-8-8-8-8-8-8-8-8-|

 D|-0--0--0--0--0--0--0--0--0--0--0--0--0--0--0--|
 D|-0--0--0--0--0--0--0--0--0--0--0--0--0--0--0--|
 D|-0--0--0--0--0--0--0--0--0--0--0--0--0--0--0--|
 D|-0--0--0--0--0--0--0--0--0--0--0--0--0--0--0--|
 D|-x--x--x--x--x--x--x--x--x--x--x--x--x--x--x--|
 B|-12-12-12-12-12-12-12-12-12-12-12-12-12-12-12-|
[ Tab from: http://www.guitartabs.cc/tabs/g/goo_goo_dolls/iris_tab_ver_4.html ]
 D|-0-0-0-0-0-0-0-0-0-0-0-0-0-0-0-0-0-0-0-0-0-0-0-0-0-0-0-0-|
 D|-0-0-0-0-0-0-0-0-0-0-0-0-0-0-0-0-0-0-0-0-0-0-0-0-0-0-0-0-|
 D|-0-0-0-0-0-0-0-0-0-0-0-0-0-0-0-0-0-0-0-0-0-0-0-0-0-0-0-0-|
 D|-0-0-0-0-0-0-0-0-0-0-0-0-0-0-0-0-0-0-0-0-0-0-0-0-0-0-0-0-|
 D|-x-x-x-x-x-x-x-x-x-x-x-x-x-x-x-x-x-x-x-x-x-x-x-x-x-x-x-x-|
 B|-8-8-8-8-8-8-8-8-8-8-8-8-8-8-7-7-7-7-7-7-7-7-7-7-7-7-7-7-|

 D|-0--0--0--0--0--0--0--0--0--0--0--0--0--0--0--|
 D|-0--0--0--0--0--0--0--0--0--0--0--0--0--0--0--|
 D|-0--0--0--0--0--0--0--0--0--0--0--0--0--0--0--|
 D|-0--0--0--0--0--0--0--0--0--0--0--0--0--0--0--|
 D|-x--x--x--x--x--x--x--x--x--x--x--x--x--x--x--|
 B|-12-12-12-12-12-12-12-12-12-12-12-12-12-12-12-|

 D|-0--0---0---0---0--0--0--0--0--0--0--0--|
 D|-0--0---0---0---0--0--0--0--0--0--0--0--|
 D|-0--0---0---0---0--0--0--0--0--0--0--0--|
 D|-0--0---0---0---0--0--0--0--0--0--0--0--|
 D|-x--x---x---x---x--x--x--x--x--x--x--x--|
 B|-12-12--14--14--15-17-17-17-15-15-14-14-|

 D|-0-0-0-0-0-0-0-0-0-0-0-0-0-0-0-0-0-0-0-0-0-0-0-0-0-0-0-0-|
 D|-0-0-0-0-0-0-0-0-0-0-0-0-0-0-0-0-0-0-0-0-0-0-0-0-0-0-0-0-|
 D|-0-0-0-0-0-0-0-0-0-0-0-0-0-0-0-0-0-0-0-0-0-0-0-0-0-0-0-0-|
 D|-0-0-0-0-0-0-0-0-0-0-0-0-0-0-0-0-0-0-0-0-0-0-0-0-0-0-0-0-|
 D|-x-x-x-x-x-x-x-x-x-x-x-x-x-x-x-x-x-x-x-x-x-x-x-x-x-x-x-x-|
 B|-8-8-8-8-8-8-8-8-8-8-8-8-8-8-7-7-7-7-7-7-7-7-7-7-7-7-7-7-|

 D|-0--0--0--0--0--0--0--0--0--0--0--0--0--0--0--|
 D|-0--0--0--0--0--0--0--0--0--0--0--0--0--0--0--|
 D|-0--0--0--0--0--0--0--0--0--0--0--0--0--0--0--|
 D|-0--0--0--0--0--0--0--0--0--0--0--0--0--0--0--|
 D|-x--x--x--x--x--x--x--x--x--x--x--x--x--x--x--|
 B|-12-12-12-12-12-12-12-12-12-12-12-12-12-12-12-|

Repeat this several times:
 D|--0-----0--0--0--0--0-----0--0--0--0--0-----0--0--0--0--0--|
 D|--0-----0--0--0--0--0-----0--0--0--0--0-----0--0--0--0--0--|
 D|--0-----0--0--0--0--0-----0--0--0--0--0-----0--0--0--0--0--|
 D|--0-----0--0--0--0--0-----0--0--0--0--0-----0--0--0--0--0--|
 D|--x-----x--x--x--x--x-----x--x--x--x--x-----x--x--x--x--x--|
 B|--12----12-12-12-12-14----14-14-14-14-15----15-15-15-15-15-|

 D|--0-----0--0--0--0--0-----0--0--0--0--0-----0--0--0--0--0--|
 D|--0-----0--0--0--0--0-----0--0--0--0--0-----0--0--0--0--0--|
 D|--0-----0--0--0--0--0-----0--0--0--0--0-----0--0--0--0--0--|
 D|--0-----0--0--0--0--0-----0--0--0--0--0-----0--0--0--0--0--|
 D|--x-----x--x--x--x--x-----x--x--x--x--x-----x--x--x--x--x--|
 B|--12----12-12-12-12-10----10-10-10-10-8-----8--8--8--8--8--|

 Last one before chorus:
 D|----0-----------0-----------0---------|
 D|-------0-----------0-----------0------|
 D|----------0-----------0-----------0---|
 D|--------------------------------------|
 D|--------------------------------------|
 B|--12----------14----------15----------|

 D|----0-----------0-----------0---------|
 D|-------0-----------0-----------0------|
 D|----------0-----------0-----------0---|
 D|--------------------------------------|
 D|--------------------------------------|
 B|--12----------10----------8-----------|


Chorus:
 D|-0-----0---0---0---0-----0---0---0---0-----0--0--0--0----0--0--|
 D|-0-----0---0---0---0-----0---0---0---0-----0--0--0--0----0--0--|
 D|-0-----0---0---0---0-----0---0---0---0-----0--0--0--0----0--0--|
 D|-0-----0---0---0---0-----0---0---0---0-----0--0--0--0----0--0--|
 D|-x-----x---x---x---x-----x---x---x---x-----x--x--x--x----x--x--|
 B|-12----12--12--12--12----10--10--10--10----8--8--8--8----8--8--|

And I don't want the world to see me
'Cause I don't think that they'd understand
When everything's made to be broken
I just want you to know who I am

And I don't want the world to see me
'Cause I don't think that they'd understand
When everything's made to be broken
I just want you to know who I am
I just want you to know who I am
I just want you to know who I am... (several times)

Outro:
 D|--0-----0--0--0--0--0-----0--0--0--0--0-----0--0--0--0--0--|
 D|--0-----0--0--0--0--0-----0--0--0--0--0-----0--0--0--0--0--|
 D|--0-----0--0--0--0--0-----0--0--0--0--0-----0--0--0--0--0--|
 D|--0-----0--0--0--0--0-----0--0--0--0--0-----0--0--0--0--0--|
 D|--x-----x--x--x--x--x-----x--x--x--x--x-----x--x--x--x--x--|
 B|--12----12-12-12-12-14----14-14-14-14-15----15-15-15-15-15-|

 D|--0-----0--0--0--0--0-----0--0--0--0--0-----0--0--0--0--0--|
 D|--0-----0--0--0--0--0-----0--0--0--0--0-----0--0--0--0--0--|
 D|--0-----0--0--0--0--0-----0--0--0--0--0-----0--0--0--0--0--|
 D|--0-----0--0--0--0--0-----0--0--0--0--0-----0--0--0--0--0--|
 D|--x-----x--x--x--x--x-----x--x--x--x--x-----x--x--x--x--x--|
 B|--12----12-12-12-12-10----10-10-10-10-8-----8--8--8--8--8--|

 D|----0-----------0-----------0---------|
 D|-------0-----------0-----------0------|
 D|----------0-----------0-----------0---|
 D|--------------------------------------|
 D|--------------------------------------|
 B|--12----------14----------15----------|

 D|----0-----------0-----------0---------|
 D|-------0-----------0-----------0------|
 D|----------0-----------0-----------0---|
 D|--------------------------------------|
 D|--------------------------------------|
 B|--12----------10----------8-----------|

Lyrics:

And I'd give up forever to touch you
'Cause I know that you feel me somehow
You're the closest to heaven that I'll ever be,
And I dont wanna go home right now

And all I can taste is this moment
And all I can breathe is your life
When sooner or later it's over
I just don't wanna miss you tonight

  And I don't want the world to see me
  'Cause I don't think that they'd understand
  When everything's made to be broken
  I just want you to know who I am

And you can't fight the tears that ain't comin'
Or the moment of truth in your lies
When everything feels like the movies
Yeah you bleed just to know you're alive

  And I don't want the world to see me
  'Cause I don't think that they'd understand
  When everything's made to be broken
  I just want you to know who I am

(Very long solo..)

  And I don't want the world to see me
  'Cause I don't think that they'd understand
  When everything's made to be broken
  I just want you to know who I am

  And I don't want the world to see me
  'Cause I don't think that they'd understand
  When everything's made to be broken
  I just want you to know who I am
  I just want you to know who I am
 I just want you to know who I am
I just want you to know who I am

Damn this took a long time.... Like two hours but it's a good song and I thought 
I'd share the tab with you. The other ones are wrong and this is the right version. 
There is another guitar-like instrument that I would like someone to tab if you would...
any questions/comments for me email me Uh, you can IM me if you dont try to sell me 
porn too. 

Email: JBMT1611@aol.com and xXxJiggawhoxXx@netscape.net..    
Aim screennames: JBMT1611 and xXxJiggawhoxXx...

Peace y'all,
Tyler H.

You just gotta keep on keepin' on
____
Joe Dirt
Comments