Goo Goo Dolls - Iris Chords & Tabs

 

Iris Chords & Tabs

Goo Goo Dolls Chords & Tabs

Version: 4 Type: Chords 0 ratings
1 star 2 stars 3 stars 4 stars 5 stars
comments

Iris Chords

   
Iris
Goo Goo Dolls

Tabs and Chords by VJ Mercader

(My version of the song has 3 Guitars, I only included few parts of each guitars.
The Third guitar replaces the Violins)

CHORDS
	  E A D G B E
	  -----------
   Dsus2- 0 0 0 2 3 0
       A- 0 0 2 2 2 0
    D/G6- 2 0 0 0 3 2
      Bm- X 2 4 4 3 2
       G- 3 2 0 0 0 3
      A7- 0 0 2 0 2 0
D6(add7)- 0 0 0 0 3 2
 Asus/Db- 0 0 0 2 2 0
      A9- 0 0 2 2 0 0

INTRO (Guitar 3)
e|--x-x-x----x-x-x----
B|--x-x-x----x-x-x----
G|--4-6-7----4-7-0----
D|--0-0-0----0-0-0----
A|--x-x-x----x-x-x----
E|--3-5-6----3-6-3----

	Dsus2	 A		D/G6
And I'd give up forever to touch you
	Bm		A	    D/G6
Cause I know that you feel me somehow
	   Dsus2	A		G
You're the closest to heaven that I'll ever be
	Bm	     A		     D/G6
And I don't want to go home right now
And all I can taste is this moment
And all I can breathe is your life
When sooner or later it's over
I just don't want to miss you tonight

CHORUS:
      Dsus2		A7	    G
And I don't want the world to see me
	Bm		   A7		D/G6
Cause I don't think that they'd understand
	Dsus2	    A7		G
When everything's made to be broken
	Bm	    A7		D/G6
I just want you to know who I am
[ Tab from: http://www.guitartabs.cc/tabs/g/goo_goo_dolls/iris_crd_ver_4.html ]
And you can't fight the tears that ain't comin
Or the moment of truth in your lies
When everything feels like the movies
Yeah you bleed just to know you're alive
(CHORUS)
**Interlude (2 times)
Guitar 1 - Dsus2, A7, D/G6, Bm, A7, A9
Guitar 2 - (Somewhere in 'e' String, on the 7th Fret)
Guitar 3 - (same as Intro)

**Instrumentals (3 times)
Guitar 1 - Bm - A7 - A7 - G - D6(add7) ---Dsus2,Asus/Db
On the fourth time… Bm - A7…

**Guitar Solo
       Dsus2       A7     Dsus2      Bm     Dsus2   A7      Bm        G
e|-------------------------------------------------------------------------|
B|-------------------------------------------------------------------12----|
G|-----2/-8-----8\-7-----2/-8----10--12---2/8-----12\-7---2-4----12--------|
D|-------------------------------------------------------------------------|
A|-------------------------------------------------------------------------|
E|-------------------------------------------------------------------------|

          Dsus2     Bm       G                    D6(add7) - Dsus2 - Asus/Db - A9
e|--------------------------9---9h10-9------------9----|
B|-----------------------10-------------10-------------|
G|-----2/-8/---10/-12------------------------10--------|
D|-----------------------------------------------------|
A|-----------------------------------------------------|
E|-----------------------------------------------------|
(After the Solo, Guitar Mute… then begin Chorus Chord)


And I don't want the world to see me
Cause I don't think that they'd understand
When everything's made to be broken
	Bm	    A7		D/G6
I just want you to know who I am (4X)
Comments