Goo Goo Dolls - Iris Chords & Tabs

 

Iris Chords & Tabs

Goo Goo Dolls Chords & Tabs

Version: 4 Type: Bass Tab 0 ratings
1 star 2 stars 3 stars 4 stars 5 stars
comments

Iris Bass Tab

  Easy Iris tab..

(standard tuning)
Intro: in 4/4 time:
G|---4--4-|--4/7---|0--0----|0--0-0--|
D|--------|--------|--------|--------|
A|--------|--------|--------|--------|
E|--------|--------|--------|--------| repeat
[ Tab from: http://www.guitartabs.cc/tabs/g/goo_goo_dolls/iris_btab_ver_4.html ]
Verse 1: In 3/4 time
G|---|---|-0-|-0-|-4-|-2-|-0-|-0-|
D|-0-|-2-|---|---|---|---|---|---|
A|---|---|---|---|---|---|---|---|
E|---|---|---|---|---|---|---|---| Play 4 times
Chorus: 3/4 time
G|---|---|000|000|444|222|000|000|
D|000|222|---|---|---|---|---|---|
A|---|---|---|---|---|---|---|---|
E|---|---|---|---|---|---|---|---|repeat
Post-Chorus:
basically play the 1st of the chords, desending down the G string:
so you play 4--2--0-----4--2--0----- etc.
Verse 2:
G|---|---|-0-|-0-|-4-|-2-|-0-|-0-|
D|-0-|-2-|---|---|---|---|---|---|
A|---|---|---|---|---|---|---|---|
E|---|---|---|---|---|---|---|---|repeat
Chorus
Solo:
G|--7-7-7-6-6-6-7-9-12-11-12-11-7|
D|-------------------------------|
A|-------------------------------|
E|-------------------------------|play three times, then

G|--7-7-7-6-6-6-7-9-12--14---|
D|---------------------------|
A|---------------------------|
E|---------------------------|, followed by post-chorus
Chorus x2, then
G|--4---2---0---0---|
D|------------------|
A|------------------|
E|------------------| play 4 times, last time slower. Let final note ring, then fade. 
may want to trill the last note.

This song is just an interpretation of Iris... this is the way that my band (UnderAid) 
it.
Tabbed by Underaid on Jan 2/05
email:runninwitscizzors@hotmail.com
Comments