Goo Goo Dolls - Here Is Gone Chords & Tabs

 

Here Is Gone Chords & Tabs

Goo Goo Dolls Chords & Tabs

Version: 12 Type: Tab 0 ratings
1 star 2 stars 3 stars 4 stars 5 stars
comments

Here Is Gone Tab

   
----------------------------------------------------------------------------
			    Here is gone - goo goo dolls
----------------------------------------------------------------------------
Tabbed by: Andy S
Email: Lemur_24@hotmail.com

Tuning: standard capo on first

h=hammer on
/ = slide


Bb (010200) C# (010233) G# (010023) G (010033) C/A (010330) D (012002)

G/F (010030) G/C (010020) 


Intro 

Guitar 1
                                         Repeat 2x     
e|-------0---0---0--0--0--0---0---0---0--0---0---|
B|-------1---1---1--1--1--1---1---1---1--1---1---|
G|-------0---0---0--0--0--0---0---0---0--0---0---|
D|-------2---2---2--2--2--2---2---2---2--2---2---|
A|-------0---0---0--0--0--0---0h3-3---3--3---3---|
E|-------0---0---0--0--0--0---0h3-3---3--3---3---|
guitar 2

e|--------------------------------------------------|
B|--------------------------------------------------|
G|-------------5/7--7--5--5-----5/7--7--5--5--------|
D|-------------5/7--7--5--5-----5/7--7--5--5--------|
A|--------------------------------------------------|
E|--------------------------------------------------|
Guitar 1

e|---0--0--0--0---0--0---0---0--0---0--0--|
B|---1--1--1--1---1--1---1---1--1---1--1--|
G|---0--0--0--0---0--0---0---0--0---0--0--|
D|---0--0--0--0---0--0---3---3--3---3--3--|
A|---2--3--3--3---3--3---3---3--3---3--3--|
E|-- 3--3--3--3---3--3---0---0--0---0--0--|

Bb             
You and I got something
          C#                          G#  G    C/A
But it's all and then it's nothing to me       yeah
Bb                  
And I got my defenses
         C#                          G#  G     C/A
When it comes to your intentions for me        yeah
        Bb                   
And we wake up in the breakdown
        C#                             G#  G    C/A
Of the things we neer thought we could be       yeah
[ Tab from: http://www.guitartabs.cc/tabs/g/goo_goo_dolls/here_is_gone_tab_ver_12.html ]
D                           
I'm not the one who broke you
Bb                          C#
I'm not the one you should fear

What do you got to move you darling
D                      
I thought I lost you somewhere
Bb              C#         G#    G      C/A
But you were never really ever there at all


Chorus:
G/F                G/C         Bb
And I want to get free talk to me
       G          C/A
I can feel you falling
G/F             G/C          Bb
And I wanted to be all you need
         G       C/A
Somehow here is gone

Verse 2
Bb 
I have no solution
         C#                       G#  G     C/A
To the sound of this pollution in me        yeah
   Bb           
And I was not the answer
    C#                            G#   G    C/A
So forget you ever thought it was me        yeah
D                       
I'm not the one who broke you
Bb                          C#
I'm not the one you should fear
 
What do you got to move you darling
D
I thought I lost you somewhere
Bb             C#           G#   G       C/A
But you were never really ever there at all

bridge
             Bb                  C#              
And I don't need the fallout of all the past
        G#    G
That;s here between us
             Bb   
And I'm not holding on
        C#                     G#    G      C/A   
And all your lies weren't enough to keep me here

OUTRO CHORUS
G/F               G/C          Bb
And I want to get free talk to me
       G          C/A
I can feel you falling
G/F               G/C
I know it's out there
                 Bb
I know it's out there
       G          C/A
I can feel you falling
G/F              G/C
I know it's out there
                 Bb 
I know it's out there
         G      C/A
Somehow here is gone
Comments