Goo Goo Dolls - Here Is Gone Chords & Tabs

 

Here Is Gone Chords & Tabs

Goo Goo Dolls Chords & Tabs

Version: 10 Type: Tab 0 ratings
1 star 2 stars 3 stars 4 stars 5 stars
comments

Here Is Gone Tab

   
Here is Gone
GGDolls
Gutterflower
Tabbed by Joed

First special thanx to Lance for the tuning and strumming.
I also saw them on Leno and my tab is similar to his.
The struming isn't perfect, but easy to figure out.
here it goes.

Db-Ab-Db-Ab-Db-F

INTRO
F--------------------------------------------------
Db---0h2-2-2-2-2-0-0--0h2-2-2-2-0-0----------------
Ab-----------------------------------------(2x)----
Db---0h2-2-2-2-2-0-0--0h2-2-2-2-0-0----------------
Ab----------------------------------7-5------------
Db----------------------------------7-5------------

VERSE
[ Tab from: http://www.guitartabs.cc/tabs/g/goo_goo_dolls/here_is_gone_tab_ver_10.html ]
F---0---0----0---0-----------------
Db--0---0----0---0-----------------
Ab--0---0----0---0-----------------
Db--0---0----0---0-----------------
Ab--9---12---7---5-----------(3x)--
Db--9---12---7---5-----------------

PRECHORUS

F---0-0-0--0----0-0-0-0--------
Db--0-0-0--0----0-0-0-0--------
Ab--0-0-0--0----0-0-0-0--------
Db--0-0-0--0----0-0-0-0--------
Ab--2-9-12-0----2-9-7-5--------
Db--2-9-12-0----2-9-7-5--------

CHORUS
F--0-0-0-0-0-------------------
Db-0-0-0-0-0-------------------
Ab-0-0-0-0-0-------------------
Db-7-7-4-0-0--(2x)-------------
Ab-5-4-2-7-5-------------------
Db-------7-5-------------------

Reapeat intro(only one time)
VERSE (only 2x)

PRECHORUS
CHORUS

BRIDGE
F----0-0-0-0---0-0-0-0-0-0-0---
Db---0-0-0-0---0-0-0-0-0-0-0---
Ab---4-0-0-0---4-0-0-0-0-0-0---
Db---4-0-7-7---4-0-7-7-4-2-0---
Ab---2-5-5-4---2-5-5-4-2-0-5---
Db-----5---------5-------X-5---

CHORUS
Comments