Goo Goo Dolls - Give A Little Bit Chords & Tabs

 

Give A Little Bit Chords & Tabs

Goo Goo Dolls Chords & Tabs

Version: 1 Type: Tab 0 ratings
1 star 2 stars 3 stars 4 stars 5 stars
comments

Give A Little Bit Tab

   
GIVE A A LITTLE BIT
Goo goo dolls
Tabbed By: Mariano Arnaiz
Anything to: marianoarnaiz@hotmail.com
AS recorded on studio for one acustic guitar (metal strings)

Easy song but really coo, engoy!

Intro

   G7    C            F     G7                   F
|--1-1---0-0--|    |--------1-1-1-1-1----|    |-------|
|--0-0---1-1--|    |--1-1---0-0-0-0-0----|    |--1-1--|
|--0-0---0-0--|x2  |--2-2---0-0-0-0-0-0--|x2  |--2-2--|
|--0-0---2-2--|    |--3-3---0-0-0-0-0-0--|    |--3-3--|
|--2-2---3-3--|    |--3-3---2-2-2-2-2-2--|    |--3-3--|
|--3-3--------|    |--------3-3-3-3-3-3--|    |-------|

Verse 1

C                        G7  C
I'll give a little bit
C                        F           C  G7  C 
give a little bit of your love to me
C                        G7  C
Ill give a little bit
C                          F            C  G7  C
Ill give a little bit of my love to you
Am                  Dsus4  D
See the man with the lonely eyes
     C/E                 F               PLay fill 1
Ill take his hand, you\'ll be surprised

Fill 1
C(add11/9)/B   G7       C(add11/9)/B   G7
|--------------------------------------------|
|--------1-------------------1------------3--|
|------------------4-------------------------|
|-2------------------------2----------3------|
|---------------5----------------------------|
|------------3----------3---------3----------|


Verse 2

C                        G7  C
I'll give a little bit
C                        F           C  G7  C 
give a little bit of your life for you
C                        G7  C
Ill give a little bit
C                          F            C  G7  C
Ill give a little bit of your  time to me
Am                  Dsus4      D
Now's the time that we need to share
     C/E                 F               PLay fill 2 x2
So send a smile, were on our way back home

Fill 2
C(add11/9)/B   G7       C(add11/9)/B   G7
|------------------1-----------------------1-----|
|--------1-----------0--------1--------------0---|
|-------------------------------0--------------0-|
|-2--------------------------2------------0------|
|-----------------2------------------------------|
|--------------3----------3-----------3----------|


Yeah yeah PaRT (LIGHT DISTORTION)

|-7-------------------------------------------|
|-8-------------------------------------------|
|-9-------------------------------------------|
|-9--------0-------------0--------------0--2--|
|----0-2-x----2-x-0-2--x---4--0-2-2b.r--------|
|---------------------------------------------|

|-7-------------------------------------------|
|-8-------------------------------------------|
|-9-------------------------------------------|
|-9--------0-------------0--------------------|
|----0-2-x----2-x-0-2--x---4--0-2-2b.r--0--2--|
|---------------------------------------------|
[ Tab from: http://www.guitartabs.cc/tabs/g/goo_goo_dolls/give_a_little_bit_tab.html ]
|-------------------------------------------|
|-10----------------------------------------|
|-10----------------------------------------|
|-10--------0-------------0-----------------|
|-8---0-2-x----2-x-0-2--x---4---------------|
|------------------------------1-3/5---3-1--|




Bridge 1 (all chords in secon position)

C          F            G               F    C  
dont you need to feel at home?  (dont you need dont you need dont you need to feel at home)
C          F            G               F    C  
ohh you gotta feel it
Dadd9 (here starts the  fill 3)                          F 
yeah im coming home too ohh you gotta sing come a long way tonight

   C  F   G  Dadd9
|--3--8---3--5--|
|--5--10--3--5--|
|--5--10--4--2--|
|--5--10--5--4--|
|---------------|
|---------------|

Fill 3

|-5---------------0---------------------------------|
|-5---------------1---------------------------------|
|-2---------------2---------------------------------|
|-4---------------3----3/5--3------0----------0-----|
|-5\1--3/5--3--2--3\0-----------/2---------/2-------|
|---------------------------------------3---------0-|

|------------------3-3------|
|------------------3-3---1--|
|------------------0-0---2--|
|-----3-------/5---0-0---3--|
|-/5----------/7---2-2---3--|
|---------3--------3-3------|


Verse 3


C                        G7  C
I'll give a little bit
C                        F           C  G7  C 
give a little bit of your love to me
C                        G7  C
Ill give a little bit
C                          F            C  G7  C
Ill give a little bit of my life for you
Am                  Dsus4      D
Now's the time that we need to share
     C/E                 F               
So send a smile, were on our way back home

Bridge 2

Bridge 1 (all chords in secon position)

C          F            G               F    C  
dont you need to feel at home?  (dont you need dont you need dont you need to feel at home)
C          F            G               F    C  
ohh you gotta feel it
Dadd9 (here starts the  fill 3)                          F 
yeah im coming home too ohh you gotta sing come a long way tonight

   C  F   G  Dadd9
|--3--8---3--5--|
|--5--10--3--5--|
|--5--10--4--2--|
|--5--10--5--4--|
|---------------|
|---------------|

Fill 3

|-5---------------0---------------------------------|
|-5---------------1---------------------------------|
|-2---------------2---------------------------------|
|-4---------------3----3/5--3------0----------0-----|
|-5\1--3/5--3--2--3\0-----------/2---------/2-------|
|---------------------------------------3---------0-|

|------------------3-3------|
|------------------3-3---1--|
|------------------0-0---2--|
|-----3-------/2---0-0---3--|
|-/5----------/7---2-2---3--|
|---------3--------3-3------|

Outro 
   C      G      F    G    C
|--0-0-0-------------------0-0--|
|--1-1-1--3-3-3--1-1--3-3--1-1--|
|--0-0-0--4-4-4--2-2--4-4--0-0--|
|--2-2-2--5-5-5--3-3--5-5--2-2--|
|--3-3-3--5-5-5--3-3--5-5--3-3--|
|-------------------------------|
Comments