Goo Goo Dolls - Girl Right Next To Me Chords & Tabs

 

Girl Right Next To Me Chords & Tabs

Goo Goo Dolls Chords & Tabs

Version: 1 Type: Bass Tab 0 ratings
1 star 2 stars 3 stars 4 stars 5 stars
comments

Girl Right Next To Me Bass Tab

Intro

G|----------|
D|----------|
A|----------|
E|---0-6-7--|

G|-----------------------------------------------------|
D|-----------------------------------------------------|
A|--9999999999999999-----------------------------------|  X3
E|----------------------7777777777777777---------------|

G|--------------------|
D|--------------------|
A|----6---------------|
E|------7--2--9--7----|Verse

G|----------|
D|----------|
A|----------|
E|---0-6-7--|
[ Tab from: http://www.guitartabs.cc/tabs/g/goo_goo_dolls/girl_right_next_to_me_btab.html ]
G|--------------------------------------------------------------|
D|--------------------------------------------------------------|
A|--------------------------------------------------------------|
E|-2-22-22-2~---9-99999-9-99999--7-77777--9-99999--2-22-22-2~---|

G|-----------------------------------------------------|
D|-----------------------------------------------------|
A|---------------------------------6-------------------|
E|-2-22-22-2~---9-99999-9-99999-------7--2--9--7-------|
Comments