Goo Goo Dolls - Flat Top Chords & Tabs

 

Flat Top Chords & Tabs

Goo Goo Dolls Chords & Tabs

Version: 3 Type: Tab 0 ratings
1 star 2 stars 3 stars 4 stars 5 stars
comments

Flat Top Tab

mcarman@du.edu (Michael P. Carman)
"Flat Top" by the Goo Goo Dolls

Intro / Chorus:

---------0-------------------0-------------------------------
---------0-------------------0--------------------------------
--4------0-------2-2--2--2---2----0-------11-11-11\8-8-8\4-4-
--4--------------2-2--2--2---2----0---2----9--9--9\6-6-6\4-4-    
--2--------------0-0--0--0---0----0---2----------------------
--------------------------------------0----------------------

---------0-------------------0----------------0-0-0-0-0-
---------0-------------------0----------------0-0-0-0-0-
--4------0-------2-2--2--2---2----0-----------0-0-0-0-0-
--4--------------2-2--2--2---2----0---2---2---2-2-2-2-2-    
--2--------------0-0--0--0---0----0---2---2---2-2-2-2-2-
--------------------------------------0---0---0-0-0-0-0-
[ Tab from: http://www.guitartabs.cc/tabs/g/goo_goo_dolls/flat_top_tab_ver_3.html ]
 Flat top intervention, bringing home the new invention.
-0-------------0--------0-----------------0--------------------
-0-------------0--------0-----------------0--------------------
-0-------------0--------0-----------------0--------------------
-4-------------6--------9-----------------4--------------------     
-4-------------6--------7-----------------2--------------------
-2-------------4--------0--------------------------------------

 You can see it there in pieces on the ground.
---------0---------------0-------------0-----------------------
---------0---------------0-------------0-----------------------
---------0---------------0-------------0-----------------------
---------6---------------4-------------2-----------------------     
---------6---------------4-------------2-----------------------
---------4---------------2-------------0-----------------------

 Look at all the washed-out hippie dreams.
-0---------------0-----------------0-----------------
-0---------------0-----------------0-----------------
-0---------------0-----------------9----------------
-6---------------8-----------------7-----------------     
-6---------------8-----------------0-----------------
-4---------------6-----------------------------------

 And my dirty dreams all come alive on my TV
-0------0----------------0----------0---------------
-0------0----------------0----------0---------------
-0------2----------------6----------4---------------
-6------2----------------6----------4---------------    
-6------0----------------4----------2---------------
-4--------------------------------------------------
Comments