Goo Goo Dolls - Flat Top Chords & Tabs

 

Flat Top Chords & Tabs

Goo Goo Dolls Chords & Tabs

Version: 2 Type: Tab 0 ratings
1 star 2 stars 3 stars 4 stars 5 stars
comments

Flat Top Tab

----------------------------------PLEASE NOTE--------------------------------#
#This file is the author's own work and represents their interpretation of the#
#song. You may only use this file for private study, scholarship, or research.#
#-----------------------------------------------------------------------------#

"Flat Top" by the Goo Goo Dolls
(tabbed by goo@soong.heinous.net & Michael P. Carman)
Tune the high E string up to F#
Goo Goo Dolls Web Site: The World of Goo
http://soong.heinous.net/~goo/index.html


Intro / Chorus (riff 1):

---------0-------------------0-------------------------------
---------0-------------------0-------------------------------
--4--------------2-2--2--2---2--------1---11-11-11\8-8-8\4-4-
--4--------------2-2--2--2---2--------2----9--9--9\6-6-6\2-2-    
--2--------------0-0--0--0---0--------2----------------------
--------------------------------------0----------------------

---------0-------------------0----------------0-0-0-0-0-
---------0-------------------0----------------0-0-0-0-0-
--4------0-------2-2--2--2---2----0-----------1-1-1-1-1-
--4--------------2-2--2--2---2----0---2---2---2-2-2-2-2-    
--2--------------0-0--0--0---0----0---2---2---2-2-2-2-2-
--------------------------------------0---0---0-0-0-0-0-
[ Tab from: http://www.guitartabs.cc/tabs/g/goo_goo_dolls/flat_top_tab_ver_2.html ]
Verse:
 
-0-------------0--------0-----------------0--------------------
-0-------------0--------0-----------------0--------------------
-3-------------4--------9-----------------8--------------------
-4-------------6--------9-----------------9--------------------     
-4-------------6--------7-----------------9--------------------
------------------------------------------7--------------------

---------0---------------0-------------0-----------------------
---------0---------------0-------------0-----------------------
---------4---------------3-------------1-----------------------
---------6---------------4-------------2-----------------------     
---------6---------------4-------------2-----------------------
---------------------------------------0-----------------------



-0---------------0-----------------0-----------------
-0---------------0-----------------7-----------------
-0---------------3-----------------7----------------
-6---------------3-----------------4-----------------     
-6---------------1-----------------0-----------------
-4---------------x-----------------------------------


-0------0----------------0----------0---------------
-0------0----------------0----------0---------------
-0------2----------------6----------4---------------
-6------2----------------6----------4---------------    
-6------0----------------4----------2---------------
-4--------------------------------------------------


Show it all to me 
------------------
------------------
------------------
--------4------2--     
--------4------2--
--------2------0--
Show it all to me

(solo)

Comments