Goo Goo Dolls - Fallin' Down Chords & Tabs

 

Fallin' Down Chords & Tabs

Goo Goo Dolls Chords & Tabs

Version: 2 Type: Tab 0 ratings
1 star 2 stars 3 stars 4 stars 5 stars
comments

Fallin' Down Tab

#----------------------------------PLEASE NOTE--------------------------------#
#This file is the author's own work and represents their interpretation of the#
#song. You may only use this file for private study, scholarship, or research.#
#-----------------------------------------------------------------------------#

Fallin Down
-----------
by the Goo Goo Dolls
(solo by John O'shaugnessy)
Goo Goo Dolls Web Site: The World of Goo
http://soong.heinous.net/~goo/index.html

Intro w/ distortion

------------------------------------------------------------------------
------------------------------------------------------------------------
--6---9---4----4---6---9-9---4--2---------------------------------------
--6---9---4----4---6---9-9---4--2---------------------------------------
--4---7---2----2---4---7-7---2--0---------------------------------------
------------------------------------------------------------------------


------------------------------------------------------------------------
------------------------------------------------------------------------
--6---9---4---6---2-----2-2-2---4--4------------------------------------
--6---9---4---6---2-----2-2-2---4--4------------------------------------
--4---7---2---4---0-----0-0-0---2--2------------------------------------
------------------------------------------------------------------------



------------------------------------------------------------------------
------------------------------------------------------------------------
--6---9---4----4---6---9-9---4--2---------------------------------------
--6---9---4----4---6---9-9---4--2---------------------------------------
--4---7---2----2---4---7-7---2--0---------------------------------------
------------------------------------------------------------------------

[ Tab from: http://www.guitartabs.cc/tabs/g/goo_goo_dolls/fallin_down_tab_ver_2.html ]
------------------------------------------------------------------------
------------------------------------------------------------------------
--6---9---4---6---------------------------------------------------------
--6---9---4---6---2-----------------------------------------------------
--4---7---2---4---2-----------------------------------------------------
------------------0-----------------------------------------------------

--------------------------     ----------------------------------
---------4--4h5p4-0-4-5---     ---5-4---7--5--5------------------
--6-6---------------------     ----------------------------------
--6-6---------------------x3   ----------------------------------
--4-4---------------------     ----------------------------------
--------------------------     ----------------------------------

e -------------------------------------------------------------------------
B --------9-9-------9-9--------9--9-------9--9-----------------------------
G --11b13-----11b13-----11b13--------11b13-------11b13r11---9-----9\8------
D ----------------------------------------------------------------------9--
A -------------------------------------------------------------------------
E -------------------------------------------------------------------------

e ------------------------------------------------------------12---14p12---
B ---------------------------12h14p12---14p12---12----/14------------------
G -8-8-9--11--9--8h999---/13-----------------------------------------------
D -------------------------------------------------------------------------
A -------------------------------------------------------------------------
E -------------------------------------------------------------------------

                                                                (vib.)
e --14b16r14p12-----------------12----14fb&r(14)p12--------12---12---------
B ----------------14-------/14------------------------14-------------------
G -------------------------------------------------------------------------
D -------------------------------------------------------------------------
A -------------------------------------------------------------------------
E -------------------------------------------------------------------------

pre chorus

Chorus

Comments