Goo Goo Dolls - Extra Pale Chords & Tabs

 

Extra Pale Chords & Tabs

Goo Goo Dolls Chords & Tabs

Version: 1 Type: Bass Tab 0 ratings
1 star 2 stars 3 stars 4 stars 5 stars
comments

Extra Pale Bass Tab

   
F# - 2xxx

E - 0xxx

B - x2xx

C - x3xxIntro:

G ---------------------|----------------------
D ----5--4-------------|----5--4--------------
A -7---------2--3----5-|-7--------2--3----5---
E ---------------------|----------------------

G --------------------- 
D ----5--4------------- 
A -7--------2--3-----5- 
E --------------------- 

Verse:

G F#  E

Extra pale

G  F#     E 

Oh you're frail now

B              C 

   I shouldn't laugh about it

G  F# E   G    F#  E 

Tragedy   sets you free but

B                C        E              G-F#-E G-F#-E

   I should have known it from the start

B                C          E

   I should have known that it wasChorus:
[ Tab from: http://www.guitartabs.cc/tabs/g/goo_goo_dolls/extra_pale_btab.html ]
E            G 

Just another sequel

E            G 

Just another reason for you(intro)(verse)

How's your day

Did it go your way but

You never ask about it

All the things I wish I'd be

I should have known it from the start

I should have known that it was(chorus)

Just another sequel

Just another reason for you

Just another sequel

Just another reason for your sighsBass Solo:

G ---------------------|----------------------
D ---------------------|-----0----------7/9---
A -10-12-10-------7-10-|---2---2----2---5/7---
E ----------12--8------|-3--------3-----------

Guitar Solo:

G --------------------- 
D --------------------- 
A -7---2---3---5------- 
E --------------------- 

(play 4 times)(verse)

Extra pale

Oh you're frail now

I couldn't laugh about it

Tragedy sets you free

I should have known that it was(chorus)

Just another sequel

Just another reason for you

Just another sequel           E

Just another reason for your (lies)
Comments