Goo Goo Dolls - Cuz Youre Gone Chords & Tabs

 

Cuz Youre Gone Chords & Tabs

Goo Goo Dolls Chords & Tabs

Version: 1 Type: Bass Tab 0 ratings
1 star 2 stars 3 stars 4 stars 5 stars
comments

Cuz Youre Gone Bass Tab

   
E - x7xx

F#(IX) - x9xx

D - x5xx

A - 5xxx

E(0) - 0xxxIntro:

G ---------------|---------------|---------------|-----------
D ---------------|---------------|---------------|-----------
A ---------------|---------------|---------------|-5--5------
E ---------------|---------------|---------------|------5\---

(play two times)

G --------------------------------|----------------------------
D --------------------------------|----------------------------
A ------------------5--7-7--7-5-4-|-----------------4-5-4------
E ---2-2-2-2-2-2-2----------------|-2--2-2-2-2-2-2---------7-5-

(verse)

F#

You whispered in my mouth 

                E

And I spit your words right back 

F#

How good do you think I'll look 

                        D         A

When the words start to break and crack(bridge)

G ----------|--------------|---------------|------------------
D ----------|--------------|---------------|------------------
A ----------|-7-7----------|-5-5-----------|--5-4-----5-4-----
E -2-2------|--------------|---------------|-------5-------5--

You beat your head upon your wall 

You disconnect yourself from it all 

'Cause you know that you're so beautiful and so untouchable 

And I want to get in so bad, and I don't know how 

    F#(IX) E

No I don't know how(chorus)

(play intro 2 times)

'Cause you're gone, and you ain't coming back 
[ Tab from: http://www.guitartabs.cc/tabs/g/goo_goo_dolls/cuz_youre_gone_btab.html ]
Yeah you're gone, and you ain't coming back (verse)

You held your hand so close 

And I just can't push you away 

I wished you could be my girl 

But you're stuck in your a grown-up world (bridge)

You beat your head upon your wall 

You disconnect yourself from it all 

'Cause you know that you're so beautiful and so untouchable 

And I want to get in so bad, and I don't know how 

No I don't know how(chorus)

'Cause you're gone, and you ain't coming back 

Yeah you're gone, and you ain't coming back (solo)

F#        E   D

F#        D   A

F#        E   D

F#        D   A

F#-F#  E-E A-A

F#-F#-F#-F#-F#-F#-F#-F#

E(0)-E(0)-E(0)-E(0)-E(0)-E(0)-E(0)-E(0)

D-D-D-D-D-D-D-D  D(bridge)

You beat your head upon your wall 

You disconnect yourself from it all 

'Cause you know that you're so beautiful and so untouchable 

And I want to get in so bad, and I don't know how 

And I don't know how(chorus)

'Cause you're gone, and you ain't coming back 

Yeah you're gone, and you ain't coming back 
G ---------------------|---------------|----------
D ---------------------|---------------|-7--------
A ---------------------|-7-------------|----------
E ----------2----------|---------------|----------

Yeah you're gone, and I wish you'd come back
Comments