Goo Goo Dolls - Bullet Proof Chords & Tabs

 

Bullet Proof Chords & Tabs

Goo Goo Dolls Chords & Tabs

Version: 1 Type: Tab 0 ratings
1 star 2 stars 3 stars 4 stars 5 stars
comments

Bullet Proof Tab

standard tuning

by kerz may 2002
standard tuning

INTRO
e-----------------------------------------------
b-7 7-88---7-7-8-8--888--/-3-3-33-3-3-3-333-----
g-0-0-00---0-0-0-0--000----0-0-00-0-0-0-000-----
d-0-0-00---0-0-0-0--000----2-2-22-2-2-2-222-----    x2
a-7-7-77---7-7-7-7--777--/-3-3-33-3-3-3-333-----
e-----------------------------------------------

Verse

e-0----------------------0------------------------
b-0----------------------0------------------------
g-0----------------------0------------------------
d-2----------------------2------------------------    
a-2----------------------3------------------------
e-0----------------------x------------------------
    Do you listen to yourself


e--------------------------0---------------------
b--------------------------0---------------------
g--------------------------0---------------------
d--------------------------2---------------------    
a--------------------------2---------------------
e--------------------------0---------------------
   Never live for someone else

e--------------------------0---------------------
b--------------------------0---------------------
g--------------------------0---------------------
d--------------------------2---------------------    
a--------------------------3---------------------
e--------------------------x---------------------
   Do you like the way you feel

e------------------------------0-----------------
b------------------------------0-----------------
g------------------------------0-----------------
d------------------------------2-----------------    
a------------------------------2-----------------
e------------------------------0-----------------
   Nothing hurts when no one's real

e------------------------------0-----------------
b------------------------------0-----------------
g------------------------------0-----------------
d------------------------------2-----------------    
a------------------------------3-----------------
e------------------------------x-----------------
    She wants to shake this scene

e------------------------------0-----------------
b------------------------------0-----------------
g------------------------------0-----------------
d------------------------------3-----------------    
a------------------------------3-----------------
e------------------------------x-----------------
 Yeah she wants to shake with me

e------------------------------0-----------------
b------------------------------0-----------------
g------------------------------0-----------------
d------------------------------2-----------------    
a------------------------------2-----------------
e------------------------------0-----------------
   She's not looking for the holes in all the lies

e--0--------------------------------0----------------------
b--0--------------------------------0----------------------
g--0--------------------------------0----------------------
d--2--------------------------------2----------------------
a--2--------------------------------3----------------------
e--0--------------------------------x----------------------
      I wanna bullet proof your soul

e------------------------------0-----------------
b------------------------------0-----------------
g------------------------------0-----------------
d------------------------------3-----------------    
a------------------------------3-----------------
e------------------------------0-----------------
    Would you like to lose control
[ Tab from: http://www.guitartabs.cc/tabs/g/goo_goo_dolls/bullet_proof_tab.html ]
e------------------------------0-----------------
b------------------------------0-----------------
g------------------------------0-----------------
d------------------------------2-----------------    
a------------------------------2-----------------
e------------------------------0-----------------
       I won't let you fall until you tell me so

Bridge

e-x--x--x--x----------x---x----x-x--x-
b-x--x--x--x----------x---x----x-x--x-
g-4--5--4--5----------7---5----5-7--7-
d-4--5--4--5----------7---5----5-7--7-
a-2--3--2--3----------5---3----3-5--5-                      
e-x--x--x- x----------x---x----x x--x-
  What are we?      (Whatchya wanna be)

e-x--x--x--x----------x---x----x-x--x-
b-x--x--x--x----------x---x----x-x--x-
g-4--5--4--5----------7---5----5-7--7-
d-4--5--4--5----------7---5----5-7--7-
a-2--3--2--3----------5---3----3-5--5-                      
e-x--x--x- x----------x---x----x x--x-
  Everything!       (That you wanna be)

e-x--x--x--x--------x-----x----x---x--x-
b-x--x--x--x--------x-----x----x---x--x-
g-4--5--4--5--------7-----5----5---7--7-
d-4--5--4--5--------7-----5----5---7--7-
a-2--3--2--3--------5-----3----3---5--5-                    
e-x--x--x- x--------x-----x----x---x--x-
  All I need       (Right in front of me)

e-x--x--x---x----------x---x----x-x--x-
b-x--x--x---x----------x---x----x-x--x-
g-4--5--4---5----------7---5----5-7--7-
d-4--5--4---5----------7---5----5-7--7-
a-2--3--2---3----------5---3----3-5--5-                     
e-x--x--x---x----------x---x----x x--x-
  I've know before

Chorus
e-3--------------x-------x---0------------------------------
b-3--------------3-------8---1------------------------------
g-0--------------3-------0---0------------------------------
d-0--------------3-------9---2------------------------------
a-2--------------2-------7---3------------------------------
e-3--------------x-------x---0------------------------------
   Would you   come my way
e-3--------------2--------------0-------------
b-3--------------3--------------1--------1----
g-0--------------2--------------0---------0---
d-0--------------0--------------2-----2----2--
a-2--------------x--------------3----3-3------
e-3--------------x--------------0-------------
   Or did you  burn out to the end

e-3--------------x-------x---0------------------------------
b-3--------------3-------8---1------------------------------
g-0--------------3-------0---0------------------------------
d-0--------------3-------9---2------------------------------
a-2--------------2-------7---3------------------------------
e-3--------------x-------x---0------------------------------
   Would you    come my way

e---------------3----------------2-------x------------
b---------------3----------------3-------3------------
g---------------0----------------2-------0------------
d---------------0----------------0-------2------------
a---------------2----------------x-------3------------
e---------------3----------------x-------x------------
Should have listened when you called my name
( x4 for end chorus)


then intro again

Verse 
Yeah she wants to tear you down
And she leaves without a sound
It's like fallin' backwards
Into no one's arms

You're a bullet through my soul
And I'll never let you know
I won't let you fall until you let it go

Bridge
What are we? (Whatchya wanna be)
Everything! (That you wanna be)
All I need (Right in front of me)
I've know before

chorus
Would you come my way
Or did you burn out to the end
Would you come my way
Should have listened when you called my name

chorus again
Would you come my way
Or did you burn out to the end
Would you come my way

Should have listened when you called my name
Should have listened when you called my name
Should have listened when you called my name
Should have listened when you called my name
Comments